Song name
# A B C D E F G H I J K L M N O P Q R S T U V W X Y Z

Slash - Ghost tab



e|-----------------------------7-----9-----9----b11---9-11---9h11p9----9----|
b|-------------------------------------b12---12--11-----------------12------|
g|---------------4h6p4-1----/8---/10----------------------------------------|
D|----4h6p4-1-/6------------------------------------------------------------|
A|-/6-----------------------------------------------------------------------|
E|--------------------------------------------------------------------------|



e|--12---9-----------------------------9------------------------------------|
b|b12--12---12-9-----------9-12------9----9-12-9----------------------------|
g|---------------b11-9-b11-------b11--------------12-11h12p11--9------------|
D|---------------------------------------------------------------11---------|
A|--------------------------------------------------------------------------|
E|--------------------------------------------------------------------------|



e|--------------------------------------------------------------------------|
b|-b9----------b9-----------------------------------------------------------|
g|-b9----------b9-----------------------------------------------------------|
D|----11-9--------11-9----9-------------------------------------------------|
A|---------11----------11---11-9-7-9-7-------b9-7----b7---9-7---------------|
E|------------------------------------9-7---------9-----------9-7-----------|



e|------------------------------------------------------12--b14-b14-12------|
b|-------------------12---------------------12----12-14----------------14---|
g|----------------9-b11--9-11 9-------11/13----13---------------------------|
D|------9----9-11---------------11-9----------------------------------------|
A|-9/11---11----------------------------------------------------------------|
E|--------------------------------------------------------------------------|



e|-12-14-b16--12-14-12------------9-----12----------------------------------|
b|---------------------14----/9-9---b12-----9h12p9----9---9--9-12---9-------|
g|-------------------------------------------------11----b11-------b11------|
D|--------------------------------------------------------------------------|
A|--------------------------------------------------------------------------|
E|--------------------------------------------------------------------------|



e|----------------------------------------------------------------------------|
b|--------------------------------10-0----12-0----10-0------------------------|
g|--b11-9-11-9-------------------------11------11------11---------------------|
D|-------------11-9-----------------------------------------------------------|
A|----------------------------------------------------------------------------|
E|----------------------------------------------------------------------------|
Tap to rate this tab
# A B C D E F G H I J K L M N O P Q R S T U V W X Y Z