Song name
# A B C D E F G H I J K L M N O P Q R S T U V W X Y Z

Slash - Nothing Left To Fear tab

-------------------------------------------------------------------------------
                Nothing Left To Fear - Slash and Myles Kennedy
-------------------------------------------------------------------------------
Tuning: Standard
No capo

Intro/Verse:

e|-----1-----1-----|-----0-----0-----|-----1-----1-----|-----0-----0-------|
B|---3-----3-----3-|---3-----3-----3-|---3-----3-----3-|---3-----3-----3---|
G|-------2-----2---|-1---------------|-------2-----2---|-4-----------------|
D|-0---------------|-------2-----3---|-0---------------|-------2-----3-----|
A|-----------------|-----------------|-----------------|-------------------|
E|-----------------|-----------------|-----------------|-------------------|

Chorus:
  Bb                F/A
e|-------1---------|-------1-----------|
B|-----3---3-------|-----1---1---------|
G|---3-------3---3-|---2-------2---2---|
D|-------------3---|-3-----------3-----|
A|-1---------------|-------------------|
E|-----------------|-------------------|

  C                                    Em
e|-8------8------8------8------8------|-7------7------7------7------7--------|
B|------------------------------------|--------------------------------------|
G|---9/10---10\9---9/10---10\9---9/10-|---9/10---10\9---9/10---10\9---9/10---|
D|------------------------------------|--------------------------------------|
A|------------------------------------|--------------------------------------|
E|------------------------------------|--------------------------------------|

  Bb                                        Dm                     F
e|-10------10------10------10------10------|----------------------|-8------8------8-----|
B|-----------------------------------------|-10------10------10---|---------------------|
G|----9/10----10\9----9/10----10\9----9/10-|----9/10----10\9----9-|---9/10---10\9---9---|
D|-----------------------------------------|----------------------|---------------------|
A|-----------------------------------------|----------------------|---------------------|
E|-----------------------------------------|----------------------|---------------------|

  C                                    Em
e|-8------8------8------8------8------|-7------7------7------7------7--------|
B|------------------------------------|--------------------------------------|
G|---9/10---10\9---9/10---10\9---9/10-|---9/10---10\9---9/10---10\9---9/10---|
D|------------------------------------|--------------------------------------|
A|------------------------------------|--------------------------------------|
E|------------------------------------|--------------------------------------|

  Bb                                        F/A
e|-10------10------10------10------10------|-------------------------------------------|
B|-----------------------------------------|-10------10------10------10------10--------|
G|----9/10----10\9----9/10----10\9----9/10-|----9/10----10\9----9/10----10\9----9/10---|
D|-----------------------------------------|-------------------------------------------|
A|-----------------------------------------|-------------------------------------------|
E|-----------------------------------------|-------------------------------------------|

  E7
e|--------------------------------------|
B|-9------9------9------9------9--------|
G|---9/10---10\9---9/10---10\9---9/10---|
D|--------------------------------------|
A|--------------------------------------|
E|--------------------------------------|

Solo:

e|---------5---4-------------------------------------------13---17---16-------------|
B|-6---8---6---5---5---5---6---8---13---12---9---10---15---15---15---17---17---18---|
G|-7---9-----------4---5---7---9---14---13---9---10---14------------------16---17---|
D|----------------------------------------------------------------------------------|
A|----------------------------------------------------------------------------------|
E|----------------------------------------------------------------------------------|



e|----------5---4-----------|
B|-15---6---6---5---5---5---|
G|-14---7-----------4---5---|
D|--------------------------|
A|--------------------------|
E|--------------------------|

Outro:

e|-----------------------------------------|------------------------------------------|
B|-----------------------------------------|------------------------------------------|
G|----9-10-9-10-9----9-10-9-10-9----9-10-9-|----9-10-9-10-9----9-10-9-10-9----9-10-9--|
D|-12-------------12-------------12--------|-12-------------12-------------12---------|
A|-----------------------------------------|------------------------------------------|
E|-----------------------------------------|------------------------------------------|


************************************

| /   slide up
| \   slide down
| h   hammer-on
| p   pull-off
| ~   vibrato
| +   harmonic
| x   Mute note
| b   Bend
| pb  Pre-bend
| br  Bend release
| pbr Pre-bend release
| brb Bend release bend

************************************
Tap to rate this tab
# A B C D E F G H I J K L M N O P Q R S T U V W X Y Z