Song name
# A B C D E F G H I J K L M N O P Q R S T U V W X Y Z

Slash - Austin Spalding tab

PLAY SLOW ALL THE WAY THROUGH
E:1--2--3--1-2-3-4--5--6--4-5-6-7--8--9--7-8-9-|
B:---------------------------------------------|
G:---------------------------------------------|
D:---------------------------------------------|
A:---------------------------------------------|
E:---------------------------------------------|

E:1--2--3--1/3--3/1-2--------------------------|
B:---------------------------------------------|
G:---------------------------------------------|
D:--------------------0-3-5-3-5-----0-3-5-3-5--|
A:---------------------------------------------|
E:---------------------------------------------|

E:1-----1-------------------------------------|
B:-2---2--------------------------------------|
G:--3-3---------------------------------------|
D:---4----------------------------------------|
A:--------------------------------------------|
E:--------------------------------------------|
Tap to rate this tab
# A B C D E F G H I J K L M N O P Q R S T U V W X Y Z