Song name
# A B C D E F G H I J K L M N O P Q R S T U V W X Y Z

Slash's Snakepit - Give In To Me tab

Give In To Me

   Written by Michael Jackson/B. Bottrell)
   Featuring Special Guitar Performance by
           SLASH
   for the Album:
           Dangerous by Michael Jackson

Intro:
p.m
--------x----------------------------------------------------------------------------------------------------------- 
---9\---x------------------------------------0~~~---------------------------------------------------------------- 
---9\---x--------Ç-----------------0-------0~~~---------------------------------------------------------------- 
---9\-----------2-/5\4-2---------2------4---------(4)------------------------------------------------------------ 
--------------2-------------2--3------/5---------------(5)-------------------------------------------------------- 
------------0------------------------------------------------------------------------------------------------------- 



*dubbed guitar slide… There's this one part in the second solo where it feeds 
into this repetitive hammer-on, pull off syndrome and I've got the whole solo 
practically but it's too long to tab. So for those on the verge of figuring it 
out and needing a little guidance, here's the really fast part which he moves 
into. Solo riff 1: 

--------------------------------------------------------------------------------------------------------------------
--7-8-7---7-8-7---7-8-7---7-8-7---7-8-7---7-10-7---7-8-7--7-10-7---7-8-7---7-10-7-------------------
---------9--------9--------9--------9--------9----------9-------9---------9--------9----------9----------------
--------------------------------------------------------------------------------------------------------------------
--------------------------------------------------------------------------------------------------------------------
--------------------------------------------------------------------------------------------------------------------

*32nd notes… play really, really fast!!!

 
Tap to rate this tab
# A B C D E F G H I J K L M N O P Q R S T U V W X Y Z