Song name
# A B C D E F G H I J K L M N O P Q R S T U V W X Y Z

Slash's Snakepit - Soma City Ward tab

-------------------------------------------------------------------------------
			     SOMA CITY WARD - Slash's Snakepit
-------------------------------------------------------------------------------
Tabbed by: The Mad Hatter
Tuning: 1/2 Step Down (Eb Ab Db Gb Bb eb)
Notes: Kickass song all around, but the intro is just NASTY. 
The other tab on here (under Some City Ward) is mostly right, 
but there are a few corrections I'm making to Slash's parts here.

Intro (Slash)
x3
|---------------------------------------------------------|
|---------------------------------------------------------|
|---------------------------------------------------------|
|-------------------------------------------2--3--4-------|
|----------------------0--2--0--3--0--3--4----------------|
|---0------1--2--0--2-------------------------------------|

x1
|---------------------------------------------------------|
|---------------------------------------------------------|
|---------------------------------------------------------|
|----------------------------------4--2-------------------|
|---------------------0--2--0------------4--3--2--0-------|
|-0-------1--2--0--2---------------------------------2----|

 Verse (Slash):
x3
|------------------------------------------------------------|
|------------------------------------------------------------|
|------------------------------------------------------------|
|------------------------------------------------------------|
|-------------------------------------0-----0----2--0--3--4--|
|--0----2--0--2-----------0--2-----------2-------------------|
PM         .              .              .

|------------------------------------------------------------|
|------------------------------------------------------------|
|------------------------------------------------------------|
|-------------------------------4------2---------------------|
|-----------------------------------------4--3--2--0---------|
|--0----2--0--2-----------0---------------------------2------|
PM         .              

I don't think this song is a 4/4 song, but I'm not completely sure.
Listen to or play along with the song for the proper timing though.
===============================================================================
Tap to rate this tab
# A B C D E F G H I J K L M N O P Q R S T U V W X Y Z