Song name
# A B C D E F G H I J K L M N O P Q R S T U V W X Y Z

Slash's Snakepit - Been There Lately tab

Intro repeat 2x
|-------------------------------------|
|-7--7--7-7-7-7-7-7-7-7-7--7-7-7-7----|
|-7--7--7-7-7-7-7-7-7-7-7--7-7-7-7----|
|-7--7--7-7-7-7-7-7-7-7-7--7-7-7-7----|
|-5--5--5-5-5-5-5-5-5-5-5--5-5-5-5----|
|-------------------------------------|

intro riff
|-----------------------------------------------------------|
|-----------------------------------------------------------|
|-----------------------------------------------------------|
|---x-x-x-5---x-x---3--3h5----x-x-------------3-2----0-3-5--|
|---x-x-x-----x-x-------------x-x-----------5------3--------|
|-3-x-x-x---3-x-x-3---------3-x-x-7/12/7--3-----------------|

verse riff repeat 2x
|---------------------------------------------------|
|---------------------------------------------------|
|---------------------------------------------------|
|---x-x-x-5---x-x-----------x-x-x-5---x-x----3-2----|
|---x-x-x-----x-x---3-3h5---x-x-x-----x-x--------3--|
|-3-x-x-x---3-x-x-3-------3-x-x-x---3-x-x--3--------|

Next part
|------------------------------------------|
|------------------------------------------|
|-5-5-5-x-5-5-5--3-3---5-5-5-x-5-5-5--3-3--|
|-5-5-5-x-5-5-5--3-3---5-5-5-x-5-5-5--3-3--|
|-3-3-3-x-3-3-3--1-1---3-3-3-x-3-3-3--1-1--|
|------------------------------------------|continue below
   "a beautiful...."                                         

|------------------------------------|
|------------------------------------|
|---------------10--10v\-------------|
|--5--5--5--5---10--10v\-------------|
|--5--5--5--5----8--8----------------|
|--3--3--3--3--------------repeat 2x-|continue below
   ..."stop your cryin.."

|---------------------------------------|
|---------------------------------------|
|-2------------------------------5------|
|-2------2h4---4b--4-4-2-2-4-----5---5--|
|-0--2h4-------------------------3---5--|
|------------------------------------3--|continue below

next part repeat 2x
|---------------------------------------------------|
|---------------------------------------------------|
|--4----------8-------5--5-5p3-3-5-3--5-5-5p3-3-5-3-|
|--5----------8-------5--5-5-3-3-5-3--5-5-5-3-3-5-3-|
|--5----------6-------3---------------3-------------|
|--3------------------------------------------------|
   "...I need my space..."
next part repeat 2X
|------------------------|    |-------------------------------|
|------------------------|    |-------------------------------|
|-------5---5-5p3-3-5-3--|    |--8--------3-------------------|
|--5----5---5-5p3-3-5-3--|    |--8--------3-------repeat intro|
|--5----3----------------|    |--6--------1-------------------|
|--3---------------------|    |-------------------------------|
"...ain't been there lately.."  "ain't been there lately...there's
 no room
Tap to rate this tab
# A B C D E F G H I J K L M N O P Q R S T U V W X Y Z