Song name
# A B C D E F G H I J K L M N O P Q R S T U V W X Y Z

Slash's Snakepit - Beggars And Hangers On tab

-------------------------------------------------------------------------------
			     Beggars and hangers - Slash's Snakepit
-------------------------------------------------------------------------------
Tabbed by: Adriaan Beiertz
Email: adriaanbeiertz@yahoo.com

Tuning: Standard
| /  slide up
| \  slide down
| h  hammer-on
| p  pull-off
| ~  vibrato
| +  harmonic
| x  Mute note

e|-----------------------------------------------------------------|
b|-----------------------------------------------------------------|
g|-----------------------------------------------------------------|
d|------------------4-----------4----------- 4---------------------|
a|--9b~/7---7---6---4----- 7\9--4----- 7\9---4-------7\9-----------|
e|--9b~/7--------------- 7-7\9-----7---7\9-------7---7\9--7~------|

e|-----------------------------------------------------------------|
b|-----------------------------------------------------------------|
g|-----------------------------------------------------------------|
d|------------------4-----------4----------- 4---------------------|
a|--9b~/7---7---6---4----- 7\9--4----- 7\9---4------------9~-------|
e|--9b~/7--------------- 7-7\9-----7---7\9-------7---7\9--9~------|

e|-----------------------------------------------------------------|
b|-----------------------------------------------------------------|
g|-----------------------------------------------------------------|
d|------------------4-----------4----------- 4---------------------|
a|--9b~/7---7---6---4----- 7\9--4----- 7\9---4-------7\9-----------|
e|--9b~/7--------------- 7-7\9-----7---7\9-------7---7\9--7~------|

e|-----------------------------------------------------------------|
b|-----------------------------------------------------------------|
g|-----------------------------------------------------------------|
d|------------------4-----------------------------------|
a|--9b~/7---7---6---4----- 7\9--7-6-4-------------------|
e|--9b~/7--------------- 7-7\9---------7| and repeat->then switch to distortion
for second part and play it with or without the doubles (7's,9's).
Tap to rate this tab
# A B C D E F G H I J K L M N O P Q R S T U V W X Y Z