Song name
# A B C D E F G H I J K L M N O P Q R S T U V W X Y Z

Slash's Snakepit - Monkey Chow tab

Monkey chow
Slash's Snakepit
It's five o'clock somewhere

Gilby Clarke

Intro:
|----------------------------------------------------------------|
|-------------------------------------------------/--10-8--------|
|----9-8-9h8h6-8-9---9-8-9h8h6-8-9-6---9-8-9h8h6-8-9--------9-8--|
|--7---------------7-----------------7--------------------7------|
|--7---------------7-----------------7--------------------7------|
|--5---------------5-----------------5--------------------5------|
                                                                  
                                                                  
|-------------|--------------------------------------------------|
|-------------|--------------------------------------------------|
|-9h8h6-8-9-6-|--------------------------------------------------|
|-------------|--------------------------------------------------|
|-------------|--------------------------------------------------|
|-------------|--------------------------------------------------|


Tap to rate this tab
 
# A B C D E F G H I J K L M N O P Q R S T U V W X Y Z