Guitaretab - guitar tabs
Song name
# A B C D E F G H I J K L M N O P Q R S T U V W X Y Z

Slash's Snakepit - Take It Away tab

Take It Away
It's Five O'Clock Somewhere 
by SLASH/Eric Dover/Matt Sorum

Intro.
Guitar I
*clean guitar (rhythm pick-ups)


-------------5-----------------8--------6--------------1-------8--------6--------5------------
------6--------------(8)--------6--------6----------3------------6--------6--------6---------
---------7-------------------------7--------7-----2------2/4-------7--------7--------7-------
--0------------5/7------------------------------0--------------------------------------0-------
-------------------------------------------------------------------------------------------------
-------------------------------------------------------------------------------------------------

	*let notes ring through out

Guitar II
*clean guitar
[ Tab from: http://www.guitaretab.com/s/slashs-snakepit/26481.html ]
-------------------------------------------------------------------------------------------------
-------------------------------------------------------------------------------------------------
----------------------2--0-----0------------------------------2--0----0-----------------------
-----------------------------3----3--0------------------------------3----3--0------------------
-------------------------------------------------------------------------------------------------
-------------------------------------------------------------------------------------------------


Guitar II
*distortion					               full full


-------------------------------------------------------------------------------------------------
------------------------x---10/------------------------x--12/----------------------------
---2--2--2--2--2--2--x---10/---2--2--2--2--2--2--x--12/----------------------------
---0--0--0--0--0--0-------------0--0--0--0--0--0-------------------------------------------
-------------------------------------------------------------------------------------------------
-------------------------------------------------------------------------------------------------


Verse

-------------------------------------------------------------------------------------------------
-------------------------------------------------------------------------------------------------
-------------------------------------------------------------------------------------------------
---7--7---5--0-----------7--7--5--0---------7--7--5--0-------------------------------------
---5--5---3--0---5--3---5--5--3--0--5--3--5--5--3--0-5--3--5-x-x-3--------------------
-------------------3--1-----------------3--1---------------3--1--3-x-x-1-0-----------------

Related for Take It Away tab