Guitaretab - guitar tabs
Song name
# A B C D E F G H I J K L M N O P Q R S T U V W X Y Z

Slash's Snakepit - What Do You Want To Be tab

What Do You Want To Be
Written by SLASH/Matt Sorum/Eric Dover
For the Album: It's Five O'Clock Somewhere
           by SLASH's Snakepit

                                                                        

Intro.
	         
------------0---3-0---0--0---0-------
-------0-------------3--2---0------
----3-4--------------------------------
----------------------------------------      repeat through intro. and verses.
----------------------------------------
----------------------------------------
*distortion
[ Tab from: http://www.guitaretab.com/s/slashs-snakepit/26482.html ]
"This is the end portion where the blues signature kicks in to outro the song."
Outro:
   E
			                    pre-bent release
--0-----------------------------------------------------------------------0----------------------------------------
--0---(3)----8---7-7~~~----------5---------------------------------0----------------------------------------
--1---/4-----7---7-7~~~-----4/6----4--------------------------------------------------------------------
--2---------------------------------------------4-2----2--------------------------------------------------------
--2---------------------------0------------------------4---4----------------------------------------------------
--0------------------------------------------------------------3-0-----------------------------------------------
		            let the open A string ring throughout		use full distortion



Related for What Do You Want To Be tab