Song name
# A B C D E F G H I J K L M N O P Q R S T U V W X Y Z

Slashs Snakepit - Soma City Ward tab

e|---------------------------------------------------------|
B|---------------------------------------------------------|
G|---------------------------------------------------------|
D|-------------------------------------------2--3--4-------|    X3
A|----------------------0--2--0--3--0--3--4----------------|
E|---0------1--2--0--2-------------------------------------|

e|---------------------------------------------------------|
B|---------------------------------------------------------|
G|---------------------------------------------------------|
D|----------------------------------4--2-------------------|     X1
A|---------------------0--2--0------------4--3--2--0-------|
E|-0-------1--2--0--2---------------------------------2----|

e|-s6-6-6-x-4-4-4-x-2-2-2-x-1-1-1-2-2-2-4-4-4---------------|
B|--------------------------0-0-0-------------4b-4-2-4-2----|
G|-s6-6-6-x-4-4-4-x-2-2-2-x-0-0-0-2-2-2-4-4-4-4b-4-2-4-2----|
D|-------------------------------------------------------4v-|
A|----------------------------------------------------------|
E|----------------------------------------------------------|

e|------------------------------------------------------------|
B|------------------------------------------------------------|
G|------------------------------------------------------------|  x3
D|------------------------------------------------------------|
A|-------------------------------------0-----0----2--0--3--4--|
E|--0----2--0--2-----------0--2-----------2-------------------|
                                   
e|------------------------------------------------------------|
B|------------------------------------------------------------|
G|------------------------------------------------------------|
D|-------------------------------4------2---------------------|
A|-----------------------------------------4--3--2--0---------|
E|--0----2--0--2-----------0---------------------------2------|

Tap to rate this tab
# A B C D E F G H I J K L M N O P Q R S T U V W X Y Z