Song name
# A B C D E F G H I J K L M N O P Q R S T U V W X Y Z

Slashs Snakepit - Beggars And Hangers On tab

Hey this my first tab so plz rate good. this tab is just the intro and beggining
chorus, if you spot anything wrong with this tab, email me at 
raphaeld1999@live.com hope you enjoy!

intro: clean channel
Eb---------------------------------------------------------------------------|
Bb---------------------------------------------------------------------------|
Gb---------------------------------------------------------------------------|
Db---3s2p0------0-----0-------3s2p0-----0-----0---3s5-3s2p0------0--------0--|
Ab--------0--3b--0-----0-----------0--3b-0-----0-----------0--3b--0--------0-|
Db----------------0--3b-3-3b--------------0-3b--0------------------0--3b-----|

Eb------------------------------]
Bb------------------------------]
Gb------------------------------]
Db--------3s2p0-------5s3s2p0---]
Ab-------------0-3s5---------3b-]
Db--3-3b-3-----------5----------]x2


Chorus: Overdrive
Eb---------------------------------------------------------------------------|
Bb---------------------------------------------------------------------------|
Gb---------------------------------------------------------------------------|
Db---3s2p0------0-----0-------3s2p0-----0-----0---3s5-3s2p0------0--------0--|
Ab--------0--3b--0-----0-----------0--3b-0-----0-----------0--3b--0--------0-|
Db----------------0--3b-3-3b--------------0-3b--0------------------0--3b-----|

Eb------------------------------]
Bb------------------------------]
Gb------------------------------]
Db--------3s2p0-------5s3s2p0---]
Ab-------------0-3s5---------3b-]
Db--3-3b-3-----------5----------]x2


end chorus w\low db chord for effect:
Eb-0------|
Bb-3------|
Gb-2------|
Db-0------|
Ab-0------|
Db-0------|

and there you have it hoped you like it play along with the song on youtube i
think there are some mistakes i made but the rest sound good
Tap to rate this tab
# A B C D E F G H I J K L M N O P Q R S T U V W X Y Z