Song name
# A B C D E F G H I J K L M N O P Q R S T U V W X Y Z

Slashs Snakepit - Lower tab

Verse
e----3----------||----------------------------------||
B----5-----6----||------4---6----------4---6-7--4---||
G----5-----5----||----5---5-----5----5---5----------||
D----3-----3----||----------------------------------||
A---------------||----------------------------------||
E---------------||----------------------------------||

There is some effects used on this, but I don't have my guitar or amp so I can't figure 
it out.

Pre-chorus
e------------------------||
B------------------------||
G--3--3--3--3--3--3--3--3||
D--3--3--3--3--3--3--3--3||
A--1--1--1--1--1--1--1--1||
E------------------------||

Chorus
e------------------------||------------------------||
B------------------------||------------------------||
G--5--5--5--5--5--5--5--5||--3--3--3--3--3--3--3--3||
D--5--5--5--5--5--5--5--5||--3--3--3--3--3--3--3--3||
A--3--3--3--3--3--3--3--3||--1--1--1--1--1--1--1--1||
E------------------------||------------------------||

e------------------------||------------------------||
B------------------------||------------------------||
G------------------------||--3--3--3--3--3--3--3--3||
D--3--3--3--3--3--3--3--3||--3--3--3--3--3--3--3--3||
A--3--3--3--3--3--3--3--3||--1--1--1--1--1--1--1--1||
E--1--1--1--1--1--1--1--1||------------------------||

There's some more stuff in the chorus, but I can't tab that and it's easily improvised 
on the rhythm-guitar using C pentatonic scale (I guess, I'm not theoretically good)

The lick that Slash does (with talk box)
e--------------------------------------------------------------------------------||
B--------------------------------------------------------------------------------||
G--------------------------------------------------------------------------------||
D------1b---1b----------1-3-3b-3b-3b-3p1---1---------1b---1b---------------------||
A--1-3----3----3-1-3--3------------------3--3----1-3----3----3-1-3--------------3||
E-------------------------------------------------------------------3--1--3--1---||

Not entirely accurate, I know, but you can make it out of this and it's more accurate 
than what's already out there if you don't have guitar pro. It's a fairly simple solo and 
all that, just play around on the C pentatonic scale.
Tap to rate this tab
# A B C D E F G H I J K L M N O P Q R S T U V W X Y Z