Song name
# A B C D E F G H I J K L M N O P Q R S T U V W X Y Z

Slash's Snakepit - Something About Ur Love tab

Something About Your Love
Tabbed By GDA
My E-mail glebd2000@mail.ru

Rock On!
Intro
|--------------------------------|
|--2----2-2-3-2--2-----2-2h3-----|
|--0----0--------0-----0---------|
|--------------------------------|
|--2/3--2--------2/3---2---------|
|--------------------------------|

|--------------------------------|
|--2----2-2-3-2--2-----2---------|
|--0----0--------0-----0---------|
|--------------------------------|
|--2/3--2--------2/3---2---------|
|--------------------------------|
 Verse 1

|--------------------------------|
|--2----2-2-3-2--2-----2-2h3-----|
|--0----0--------0-----0---------|
|--------------------------------|
|--2/3--2--------2/3---2---------|
|--------------------------------|
                                      Few Times
|--------------------------------|
|--2----2-2-3-2--2-----2-2h3-----|
|--0----0--------0-----0---------|
|--------------------------------|
|--2/3--2--------2/3---2---------|
|--------------------------------|

Chord

|----3-3------3-----|
|---4----4------4---|
|--5-------5----5---|
|-5----5-----5------|
|-------------------|
|-------------------|

|--------------------------------|
|--2----2-2-3-2--2-----2-2h3-----|
|--0----0--------0-----0---------|
|--------------------------------|
|--2/3--2--------2/3---2---------|
|--------------------------------|

|--------------------------------|
|--2----2-2-3-2--2-----2-2h3-----|
|--0----0--------0-----0---------|
|--------------------------------|
|--2/3--2--------2/3---2---------|
|--------------------------------|

All Of the Thing ............................

|-0---|  |--3-------3|
|-----|  |----4----4-|
|---5-|2x|----5---5--| 2x
|-4---|  |-5-----5---|
|----5|  |-----------|
|-----|  |-----------|
Tap to rate this tab
# A B C D E F G H I J K L M N O P Q R S T U V W X Y Z