Song name
# A B C D E F G H I J K L M N O P Q R S T U V W X Y Z

Slaughter And The Dogs - Schizophrenic tab

-----------------------------------------------------------------------------
                    Slaughter And The Dogs : Schizophrenic
-----------------------------------------------------------------------------


 
Intro
E|---------------------------------------------------------------------------|
B|---------------------------------------------------------------------------|
G|---------------------------------------------------------------------------|
D|--5-7-------5-3------------------------------------------------------------|x4
A|--5-7-------5-3------------------------------------------------------------|
E|--3-5-------3-1------------------------------------------------------------|

Riff 1
E|---------------------------------------------------------------------------|
B|---------------------------------------------------------------------------|
G|12-12-12-12x10-10-10-10x---------------------------------------------------|x2
D|12-12-12-12x10-10-10-10x---------------------------------------------------|
A|10-10-10-10x-8--8--8--8x---------------------------------------------------|
E|---------------------------------------------------------------------------|

Riff 2/Verse
E|---------------------------------------------------------------------------|
B|---------------------------------------------------------------------------|
G|---------------------------------------------------------------------------|x4
D|7-7-7-7x3-3-3-3x-----------------------------------------------------------|
A|7-7-7-7x3-3-3-3x-----------------------------------------------------------|
E|5-5-5-5x1-1-1-1x-----------------------------------------------------------|

Riff 3/Pre-Chorus
E|---------------------------------------------------------------------------|
B|---------------------------------------------------------------------------|
G|12-12-12-12x---------------------------------------------------------------|x2
D|12-12-12-12x3-3-3-3x-------------------------------------------------------|
A|10-10-10-10x3-3-3-3x-------------------------------------------------------|
E|------------1-1-1-1x-------------------------------------------------------|

Chorus
E|---------------------------------------------------------------------------|
B|---------------------------------------------------------------------------|
G|----------------7-7-7-5-5-5-5-5--------------------------------------------|x4
D|7-7-7-7-7-7-7-7-7-7-7-5-5-5-5-5--------------------------------------------|
A|7-7-7-7-7-7-7-7-5-5-5-3-3-3-3-3--------------------------------------------|
E|5-5-5-5-5-5-5-5------------------------------------------------------------|

Riff 4
E|---------------------------------------------------------------------------|
B|---------------------------------------------------------------------------|
G|---------------------------------------------------------------------------|
D|--3x3x3x3x3x3x3x3x5x5x5x5x5x5x5x5x-----------------------------------------|
A|--3x3x3x3x3x3x3x3x5x5x5x5x5x5x5x5x-----------------------------------------|
E|--1x1x1x1x1x1x1x1x3x3x3x3x3x3x3x3x-----------------------------------------|

Riff 2
E|---------------------------------------------------------------------------|
B|---------------------------------------------------------------------------|
G|---------------------------------------------------------------------------|x4
D|7-7-7-7x3-3-3-3x-----------------------------------------------------------|
A|7-7-7-7x3-3-3-3x-----------------------------------------------------------|
E|5-5-5-5x1-1-1-1x-----------------------------------------------------------| 

Riff 3
E|---------------------------------------------------------------------------|
B|---------------------------------------------------------------------------|
G|12-12-12-12x---------------------------------------------------------------|x2
D|12-12-12-12x3-3-3-3x-------------------------------------------------------|
A|10-10-10-10x3-3-3-3x-------------------------------------------------------|
E|------------1-1-1-1x-------------------------------------------------------|

Chorus
E|---------------------------------------------------------------------------|
B|---------------------------------------------------------------------------|
G|----------------7-7-7-5-5-5-5-5--------------------------------------------|x4
D|7-7-7-7-7-7-7-7-7-7-7-5-5-5-5-5--------------------------------------------|
A|7-7-7-7-7-7-7-7-5-5-5-3-3-3-3-3--------------------------------------------|
E|5-5-5-5-5-5-5-5------------------------------------------------------------|
 
Riff 4
E|---------------------------------------------------------------------------|
B|---------------------------------------------------------------------------|
G|---------------------------------------------------------------------------|x2
D|3x3x3x3x3x3x3x3x5x5x5x5x5x5x5x5x-------------------------------------------|
A|3x3x3x3x3x3x3x3x5x5x5x5x5x5x5x5x-------------------------------------------|
E|1x1x1x1x1x1x1x1x3x3x3x3x3x3x3x3x-------------------------------------------|


Solo ...


Riff 5
E|---------------------------------------------------------------------------|
B|---------------------------------------------------------------------------|
G|----------------121212121212121212121212121212-----------------------------|x2
D|3x3x3x3x3x3x3x3x121212121212121212121212121212-----------------------------|
A|3x3x3x3x3x3x3x3x101010101010101010101010101010-----------------------------|
E|1x1x1x1x1x1x1x1x-----------------------------------------------------------|

 
Chorus x 8


Riff 5
E|---------------------------------------------------------------------------|
B|---------------------------------------------------------------------------|
G|----------------121212121212121212121212121212-----------------------------|x2
D|3x3x3x3x3x3x3x3x121212121212121212121212121212-----------------------------|
A|3x3x3x3x3x3x3x3x101010101010101010101010101010-----------------------------|
E|1x1x1x1x1x1x1x1x-----------------------------------------------------------|


 Tabbed by Ian Kapoudjian
 Email : ian.kay@free.fr
Tap to rate this tab
# A B C D E F G H I J K L M N O P Q R S T U V W X Y Z