Song name
# A B C D E F G H I J K L M N O P Q R S T U V W X Y Z

Slaughter And The Dogs - Hell In New York tab

-----------------------------------------------------------------------------
                    Slaughter And The Dogs - Hell In New York
 -----------------------------------------------------------------------------



 Main Riff
 E|---------------------------------------------------------------------------|
 B|---------------------------------------------------------------------------|
 G|--12-12-12-x-11-11-11-x-x-9-x-9-9-9-9-x------------------------------------|
 D|--12-12-12-x-11-11-11-x-x-9-x-9-9-9-9-x------------------------------------|
 A|--10-10-10-x-9--9--9--x-x-7-x-7-7-7-7-x------------------------------------|
 E|---------------------------------------------------------------------------|


 Chorus
 E|---------------------------------------------------------------------------|
 B|---------------------------------------------------------------------------|
 G|--12--------7-7-7-7-7-7-7-7-9-9-9-9-9-9-9-9-9-9-9-9-9-9-9------------------|
 D|--12--------7-7-7-7-7-7-7-7-9-9-9-9-9-9-9-9-9-9-9-9-9-9-9------------------|
 A|--10--------5-5-5-5-5-5-5-5-7-7-7-7-7-7-7-7-7-7-7-7-7-7-7------------------|
 E|---------------------------------------------------------------------------|


 Tabbed by Ian Kapoudjian
 Email : ian.kay@free.fr
Tap to rate this tab
# A B C D E F G H I J K L M N O P Q R S T U V W X Y Z