Song name
# A B C D E F G H I J K L M N O P Q R S T U V W X Y Z

Slaughter And The Dogs - Edgar Allan Poe tab

-----------------------------------------------------------------------------
                 Slaughter And The Dogs - Edgar Allan Poe
-----------------------------------------------------------------------------



 
Main Riff
E|--------------------------------------------------------------------------|
B|--------------------------------------------------------------------------|
G|------8-------------------------------------------------------------------|
D|--1---8--4--6-6---6--4--x-------------------------------------------------|
A|--1---6--4--6-6---6--4--x-------------------------------------------------|
E|---------2--4-4---4--2--x-------------------------------------------------|

Chorus
E|--------------------------------------------------------------------------|
B|--------------------------------------------------------------------------|
G|--------------------------------------------------------------------------|
D|-8------10-----6----------------------------------------------------------|
A|-8-x 15-10-x 8-6-x 8------------------------------------------------------|
E|-6------8------4----------------------------------------------------------|
Tap to rate this tab
# A B C D E F G H I J K L M N O P Q R S T U V W X Y Z