Song name
# A B C D E F G H I J K L M N O P Q R S T U V W X Y Z

Slaughter And The Dogs - We Dont Care tab

-----------------------------------------------------------------------------
                  Slaughter And The Dogs : We Don't Care
-----------------------------------------------------------------------------



Intro/Riff 1
E|---------------------------------------------------------------------------|
B|---------------------------------------------------------------------------|
G|---------------------------------------------------------------------------|x4
D|--6-6-6-6-6-6-6-6-9-9-9-9-9-9-9-9-4-4-4-4-4-4-4-4-6------------------------|
A|--6-6-6-6-6-6-6-6-9-9-9-9-9-9-9-9-4-4-4-4-4-4-4-4-6------------------------|
E|--4-4-4-4-4-4-4-4-7-7-7-7-7-7-7-7-2-2-2-2-2-2-2-2-4------------------------|

Verse
E|---------------------------------------------------------------------------|
B|---------------------------------------------------------------------------|
G|---------------------------------------------------------------------------|x2
D|--6-6-6-6-6-6-6-6-9-9-9-9-9-9-9-9-4-4-4-4-4-4-4-4-6-6-6-6-6-6-6-6----------|
A|--6-6-6-6-6-6-6-6-9-9-9-9-9-9-9-9-4-4-4-4-4-4-4-4-6-6-6-6-6-6-6-6----------|
E|--4-4-4-4-4-4-4-4-7-7-7-7-7-7-7-7-2-2-2-2-2-2-2-2-4-4-4-4-4-4-4-4----------|

Chorus
E|---------------------------------------------------------------------------| 
B|---------------------------------------------------------------------------|
G|----------------------------------6-6-6-6-6-6-6-6-4-4-4-4-4-4-4-4----------|x2
D|--6-6-6-6-6-6-6-6-4-4-4-4-4-4-4-4-6-6-6-6-6-6-6-6-4-4-4-4-4-4-4-4----------|
A|--6-6-6-6-6-6-6-6-4-4-4-4-4-4-4-4-4-4-4-4-4-4-4-4-2-2-2-2-2-2-2-2----------|
E|--4-4-4-4-4-4-4-4-2-2-2-2-2-2-2-2------------------------------------------|

Riff 1
E|---------------------------------------------------------------------------|
B|---------------------------------------------------------------------------|
G|---------------------------------------------------------------------------|x2
D|--6-6-6-6-6-6-6-6-9-9-9-9-9-9-9-9-4-4-4-4-4-4-4-4-6------------------------|
A|--6-6-6-6-6-6-6-6-9-9-9-9-9-9-9-9-4-4-4-4-4-4-4-4-6------------------------|
E|--4-4-4-4-4-4-4-4-7-7-7-7-7-7-7-7-2-2-2-2-2-2-2-2-4------------------------|

Verse
E|---------------------------------------------------------------------------|
B|---------------------------------------------------------------------------|
G|---------------------------------------------------------------------------|x2
D|--6-6-6-6-6-6-6-6-9-9-9-9-9-9-9-9-4-4-4-4-4-4-4-4-6-6-6-6-6-6-6-6----------|
A|--6-6-6-6-6-6-6-6-9-9-9-9-9-9-9-9-4-4-4-4-4-4-4-4-6-6-6-6-6-6-6-6----------|
E|--4-4-4-4-4-4-4-4-7-7-7-7-7-7-7-7-2-2-2-2-2-2-2-2-4-4-4-4-4-4-4-4----------|

Chorus
E|---------------------------------------------------------------------------| 
B|---------------------------------------------------------------------------|
G|----------------------------------6-6-6-6-6-6-6-6-4-4-4-4-4-4-4-4----------|x2
D|--6-6-6-6-6-6-6-6-4-4-4-4-4-4-4-4-6-6-6-6-6-6-6-6-4-4-4-4-4-4-4-4----------|
A|--6-6-6-6-6-6-6-6-4-4-4-4-4-4-4-4-4-4-4-4-4-4-4-4-2-2-2-2-2-2-2-2----------|
E|--4-4-4-4-4-4-4-4-2-2-2-2-2-2-2-2------------------------------------------|

 
Riff 1
E|---------------------------------------------------------------------------|
B|---------------------------------------------------------------------------|
G|---------------------------------------------------------------------------|x2
D|--6-6-6-6-6-6-6-6-9-9-9-9-9-9-9-9-4-4-4-4-4-4-4-4-6------------------------|
A|--6-6-6-6-6-6-6-6-9-9-9-9-9-9-9-9-4-4-4-4-4-4-4-4-6------------------------|
E|--4-4-4-4-4-4-4-4-7-7-7-7-7-7-7-7-2-2-2-2-2-2-2-2-4------------------------|

Verse
E|---------------------------------------------------------------------------|
B|---------------------------------------------------------------------------|
G|---------------------------------------------------------------------------|x2
D|--6-6-6-6-6-6-6-6-9-9-9-9-9-9-9-9-4-4-4-4-4-4-4-4-6-6-6-6-6-6-6-6----------|
A|--6-6-6-6-6-6-6-6-9-9-9-9-9-9-9-9-4-4-4-4-4-4-4-4-6-6-6-6-6-6-6-6----------|
E|--4-4-4-4-4-4-4-4-7-7-7-7-7-7-7-7-2-2-2-2-2-2-2-2-4-4-4-4-4-4-4-4----------|

Chorus
E|---------------------------------------------------------------------------| 
B|---------------------------------------------------------------------------|
G|----------------------------------6-6-6-6-6-6-6-6-4-4-4-4-4-4-4-4----------|x2
D|--6-6-6-6-6-6-6-6-4-4-4-4-4-4-4-4-6-6-6-6-6-6-6-6-4-4-4-4-4-4-4-4----------|
A|--6-6-6-6-6-6-6-6-4-4-4-4-4-4-4-4-4-4-4-4-4-4-4-4-2-2-2-2-2-2-2-2----------|
E|--4-4-4-4-4-4-4-4-2-2-2-2-2-2-2-2------------------------------------------|

Verse ( Only in power chords )
E|---------------------------------------------------------------------------|
B|---------------------------------------------------------------------------|
G|---------------------------------------------------------------------------|x2
D|--6-6-6-6-6-6-6-6-9-9-9-9-9-9-9-9-4-4-4-4-4-4-4-4-6-6-6-6-6-6-6-6----------|
A|--6-6-6-6-6-6-6-6-9-9-9-9-9-9-9-9-4-4-4-4-4-4-4-4-6-6-6-6-6-6-6-6----------|
E|--4-4-4-4-4-4-4-4-7-7-7-7-7-7-7-7-2-2-2-2-2-2-2-2-4-4-4-4-4-4-4-4----------|


Solo ...


Verse
E|---------------------------------------------------------------------------|
B|---------------------------------------------------------------------------|
G|---------------------------------------------------------------------------|
D|--6-6-6-6-6-6-6-6-9-9-9-9-9-9-9-9-4-4-4-4-4-4-4-4-6-6-6-6-6-6-6-6----------|
A|--6-6-6-6-6-6-6-6-9-9-9-9-9-9-9-9-4-4-4-4-4-4-4-4-6-6-6-6-6-6-6-6----------|
E|--4-4-4-4-4-4-4-4-7-7-7-7-7-7-7-7-2-2-2-2-2-2-2-2-4-4-4-4-4-4-4-4----------|

E|---------------------------------------------------------------------------|
B|---------------------------------------------------------------------------|
G|---------------------------------------------------------------------------|
D|--6-6-6-6-6-6-6-6-9-9-9-9-9-9-9-9-4-4-4-4-4-4-4-4-6-6-6-6------------------|
A|--6-6-6-6-6-6-6-6-9-9-9-9-9-9-9-9-4-4-4-4-4-4-4-4-6-6-6-6------------------|
E|--4-4-4-4-4-4-4-4-7-7-7-7-7-7-7-7-2-2-2-2-2-2-2-2-4-4-4-4------------------|

Break
E|---------------------------------------------------------------------------| 
B|---------------------------------------------------------------------------|
G|----------------------------------6--6-6-6-6-6-6-6-6--6-6-6-6-6-6-6-6------|x7
D|--6-6-6-6-6-6-6-6-4-4-4-4-4-4-4-4-6--6-6-6-6-6-6-6-6--6-6-6-6-6-6-6-6------|
A|--6-6-6-6-6-6-6-6-4-4-4-4-4-4-4-4-4--4-4-4-4-4-4-4-4--4-4-4-4-4-4-4-4------|
E|--4-4-4-4-4-4-4-4-2-2-2-2-2-2-2-2------------------------------------------|

E|---------------------------------------------------------------------------| 
B|---------------------------------------------------------------------------|
G|----------------------------------6--6-6-6-6-6-6-6-6--6-6-6-6-6-6-6-6------|
D|--6-6-6-6-6-6-6-6-4-4-4-4-4-4-4-4-6--6-6-6-6-6-6-6-6--6-6-6-6-6-6-6-6-6-6--|
A|--6-6-6-6-6-6-6-6-4-4-4-4-4-4-4-4-4--4-4-4-4-4-4-4-4--4-4-4-4-4-4-4-4-6-6--|
E|--4-4-4-4-4-4-4-4-2-2-2-2-2-2-2-2-------------------------------------4-4--|


Tabbed by Ian Kapoudjian
Email : ian.kay@free.fr
Tap to rate this tab
# A B C D E F G H I J K L M N O P Q R S T U V W X Y Z