Song name
# A B C D E F G H I J K L M N O P Q R S T U V W X Y Z

Slaves On Dope - Pushing Me tab

Band:Slaves on Dope
Song:Pushing Me
Album: Inches from the mainline

by Iñaky Ignacio
LATEX RULES!! and ALICE TOO!!!!


This is a very kick ass song!!!!!
Enjoy it!!


Intro - Riff1

With distor

d#|----------------------------------------------^5--
A#|-----------------------^4-------------------------
F#|----------------------------------------------^2--
C#|---2-0-1-0-1-0-2-0-1-0-^1-2-0-1-0-1-0-2-0-1-0-----  
G#|---2-0-1-0-1-0-2-0-1-0----2-0-1-0-1-0-2-0-1-0----- 
C#|---2-0-1-0-1-0-2-0-1-0----2-0-1-0-1-0-2-0-1-0----- 


riff2 with phaser

d#|--------------------------------------------------
A#|--------------------------------------------------
F#|--------------------------------------------------
C#|--------------------------------------------------
G#|--------------------------------------------------
C#|---2-0-1-0-1-0-2-0-1-0---2-0-1-0-1-0-2-0-1-0------ 

riff3 with distor

d#|-----------------
A#|-----------------
F#|-----------------
C#|--1p0--5p0--1p0--
G#|--1p0--5p0--1p0--
C#|--1p0--5p0--1p0--

riff4 with distor and auto wah
 
                     (wah) 
d#|----------------------------------------------------
A#|----------------------------------------------------
F#|-------------------3-7------------------------------
C#|--1-0--1/5p0--1p0--x-x---------------------------0--
G#|--1-0--1/5p0--1p0--1/5---------------------------0--
C#|--1-0--1/5p0--1p0-------THE LAST TIME LET RING---0--

riff5 with distor

d#|-----------------
A#|-----------------
F#|-----------------
C#|--1p0--5p0--1p0--
G#|--1p0--5p0--1p0--
C#|--1p0--5p0--1p0-- 

riff6 with distor and a few phaser

d#|--------------------------------------------
A#|--------------------------------------------
F#|--------------------------------------------
C#|-2-0-1-0-1-0-2-0-1-0---2-0-1-0-1-0-2-0-1-0-- 
G#|--------------------------------------------
C#|--------------------------------------------

Thats the whole song, I´m sure that is 100% right
Any sugestion to: gurusama@esmas.com or nachowitch@yahoo.com

Tap to rate this tab
# A B C D E F G H I J K L M N O P Q R S T U V W X Y Z