Song name
# A B C D E F G H I J K L M N O P Q R S T U V W X Y Z

Slaves On Dope - I Cant Die tab

Help us improve GuitareTab! Take a short survey!
SLAVES ON DOPE
I CANT DIE

INTRO/VERSE
E:----------------------
B:----------------------
G:----------------------                  Repeat
D:----------------------              
A:----------------------
E:-1/0-1/0-1/0-1/0-1-1-1

CHORUS
E:------------------------------------
B:------------------------------------
G:------------------------------------
D:-0--4-4-4-5-2-0---0--4-4-4-5-2-4-8-8   Repeat
A:-0--4-4-4-5-2-0---0--4-4-4-5-2-4-8-8
E:-0--4-4-4-5-2-0---0--4-4-4-5-2-4-8-8

E:---------------------------------
B:---------------------------------
G:---------------------------------
D:-0-0-6-6-0-0-6-6-0-0-6-6-0-0-6666      Repeat
A:-0-0-----0-0-----0-0-----0-0-----
E:-0-0-----0-0-----0-0-----0-0-----
   PM       PM      PM      PM
Related for I Cant Die tab