Song name
# A B C D E F G H I J K L M N O P Q R S T U V W X Y Z

Slaves On Dope - Cat Dragged In tab

Help us improve GuitareTab! Take a short survey!
INTRO:

    |------------------------------------------|
    |------------------------------------------|
    |------------------------------------------|
    |-2-2-2-3-3-3-3-5-5----2-2-2-3-3-3-3-5-5-3-|
    |-2-2-2-3-3-3-3-5-5----2-2-2-3-3-3-3-5-5-3-|
    |-2-2-2-3-3-3-3-5------2-2-2-3-3-3-3-5-5-3-|

     VERSE: (With Wah-Wah Effect)

    |----|
    |-12-|
    |-9--|
    |----|
    |----|
    |----|

     CHORUS:

    |--------------------------|
    |--------------------------|
    |--------------------------|
    |-2----------10---------12-|
    |-2----------10---------12-|
    |-2----------10---------12-|

     2ND VERSE: (With some Chorus effect)

     The 2nd part of this verse is same as Intro

    |---|
    |---|
    |---|
    |---|
    |-9-|
    |---|

     BRIDGE:

    |--------------------------|
    |--------------------------|
    |---9-----10-----12-----15-|
    |-2-----3------5------8----|
    |-2-----3------5------8----|
    |-2-----3------5------8----|

    |------|-------------|
    |------|-------------|
    |-.-.--|----.-.-.----|
    |-2-2--|----0-0-0----|
    |-2-2--|----0-0-0----|
    |-2-2--|----0-0-0----|
      Soft muted part

     OUTRO:

    |-------------|-----|
    |-------------|-----|
    |---------.-.-|-.-.-|
    |-8-2-8-2-0-0-|-0-2-|
    |-8-2-8-2-0-0-|-0-2-|
    |-8-2-8-2-0-0-|-0-2-|
Related for Cat Dragged In tab