Song name
# A B C D E F G H I J K L M N O P Q R S T U V W X Y Z

Slayer - Ddamm Drunk Drivers Against Mad Mothers tab

#----------------------------------PLEASE NOTE---------------------------------#
#This file is the author's own work and represents their interpretation of the #
#song. You may only use this file for private study, scholarship, or research. #
#------------------------------------------------------------------------------#

DDAMM (DRUNK DRIVERS AGAINST MAD MOTHERS)
As recorded by Slayer
(From the 1996 Album UNDISPUTED ATTITUDE)

Transcribed by Anti-Idiot
	

Words and Music by Jeff Hanneman

Gtr I (Eb Ab Db Gb Bb Eb) - 'Kerry King'
Gtr II (Eb Ab Db Gb Bb Eb) - 'Jeff Hanneman'

 Intro                         Verse
  Q=155
                                G5      Ab5 Eb5   D5      C#5
 4/4
      Gtrs I, II
  Wx4          Q  Q  Q  E E     E E E E E E E E   E E E E E E E E  4x
|------------|--------------||------------------|------------------||
|------------|--------------||o-----------------|-----------------o||
|------------|--------------||------------------|------------------||
|------------|-xS=x---------||--------------8-8-|-7-7-7-7-6-6-6-6--||
|------------|--------------||o-5-5-5-5-6-6-6-6-|-5-5-5-5-4-4-4-4-o||
|------------|----------0s9S||==3-3-3-3-4-4-----|------------------||


   Chorus
    Q=250
    N.C.
    PM--------------------------------------------------------------|
    S S S S S S S S S S S S S S S S   S S S S S S S S S S S S S S S S
||----------------------------------|----------------------------------||
||o---------------------------------|---------------------------------o||
||----------------------------------|----------------------------------||
||----------------------------------|----------------------------------||
||o---------4-4-4-4-3-3-3-3---------|---------4-4-4-4-3-3-3-3---------o||
||--3-3-3-3-----------------4-4-4-4-|-3-3-3-3-----------------4-4-4-4--||


                        Q=155
  Ab5
                        Gtr II
                         <
  Q  Q  Q  Q    E E +E   E   +H
|-------------|----------------------|
|-------------|----------------------|
|-------------|----------------------|
|-------------|----------------------|
|-6-----6-----|-6-6-(6)-<7>-(<7>)----|
|-4-----4-----|-4-4-(4)--------------|


 Solo
  G5             Ab5     Eb5      D5                    C#5
  Gtr II
  Q      S S S S S S S S S E.     S S S S S S S   S     +H
|-------------------------------|---------------------------------|
|-------------------------------|---------------------------------|
|-7b9====7-7-7-7-7-7-7-7-7-7----|-7-7-7-7-7-7-7r-[7]b9==(7)r======|
|-------------------------------|---------------------------------|
|-------------------------------|---------------------------------|
|-------------------------------|---------------------------------|
|
| Gtr I
| E    E E   E   E   E   E    E   E   E   E   E          E  E E E
|-------------------------------|---------------------------------|
|-------------------------------|---------------------------------|
|-------------------------------|---------------------------------|
|------------------------8----8-|-7---7---7---7----------6--6-6-6-|
|-5----5-5---5---6---6---6----6-|-5---5---5---5----------4--4-4-4-|
|-3----3-3---3---4---4----------|---------------------------------|


  G5                          Ab5         Eb5
      \1/ \1/ \1/ \1/ \1/ \1/ \1/ \1/
  +E  S   S   S   S   S   S   S   S    E   +Q
|--------------------------------------------------|
|--------------------------------------------------|
|-(7)----------------------------------------------|
|--------------------------------------------------|
|-------------------------------------<5>-(<5>)----|
|-----5p==3h==5p==3h==5p==3h==5p==3---<5>-(<5>)----|
|
|  E  E       E       E       E        E    E   E
|--------------------------------------------------|
|--------------------------------------------------|
|--------------------------------------------------|
|-------------------------------------------8---8--|
|--5--5-------5-------5-------6--------6----6---6--|
|--3--3-------3-------3-------4--------4-----------|


  D5          C#5                 G5          Ab5  Eb5
                \1          |      /     |     /     |   /
   +H          +Q..        +S      Q    +Q     Q    +E   E
|-------------------------------|--------------------------|
|-------------------------------|--------------------------|
|-------------------------------|--------------------------|
|-------------------------------|-----------------------12-|
|-(<5>)-------(<5>)-------(<5>)-|-12---(12)---12---(12)----|
|-(<5>)-------(<5>)-------(<5>)-|--------------------------|
|
|   E   E E E   E   E E E          E E   E  E  E E   E   E
|-------------------------------|--------------------------|
|-------------------------------|--------------------------|
|-------------------------------|--------------------------|
|---7---7-7-7---6---6-6-6-------|--------------------8---8-|
|---5---5-5-5---4---4-4-4-------|--5-5---5--5--6-6---6---6-|
|-------------------------------|--3-3---3--3--4-4---------|


  D5          C#5              G5           Ab5 Eb5
    |     /     |      /1\
   +Q     Q    +Q      Q         +W
|----------------------------|----------------------|
|--------------------<12>----|-(<12>)---------------|
|--------12---(12)-----------|----------------------|
|-(12)-----------------------|----------------------|
|----------------------------|----------------------|
|----------------------------|----------------------|
|
|   E  E  E E   E  E   E   E      E   E E E E E E E
|----------------------------|----------------------|
|----------------------------|----------------------|
|----------------------------|----------------------|
|---7--7--7-7---6--6---6---6-|------------------8-8-|
|---5--5--5-5---4--4---4---4-|----5---5-5-5-6-6-6-6-|
|----------------------------|----3---3-3-3-4-4-----|


  D5                          C#5                  G5         Ab5    Eb5
                                                    \1/         /        |
   T      T      T      T      T      T
   S T T  S T T  S T T  S T T  S T T  S T T Q       H          +Q.      +E
|-10-9p5-10-9p5-10-9p5-10-9p5-10-9p5-10-9p5h9\---|--------------------------|
|------------------------------------------------|--------------------------|
|------------------------------------------------|-12---------(12)-----(12)-|
|------------------------------------------------|-12---------(12)-----(12)-|
|------------------------------------------------|--------------------------|
|------------------------------------------------|--------------------------|
|
|  E      E      E      E      E      E     E  E    E   E E E   E  E E   E
|------------------------------------------------|--------------------------|
|------------------------------------------------|--------------------------|
|------------------------------------------------|--------------------------|
|--7------7------7------7------6------6-----6--6-|-------------------8---8--|
|--5------5------5------5------4------4-----4--4-|--5---5-5-5---6--6-6---6--|
|------------------------------------------------|--3---3-3-3---4--4--------|


  D5                                  C#5
   T        T        T        T        T        T
   S  T  T  S  T  T  S  T  T  S  T  T  S  T  T  S  T  T  Q
|-17-15p12-17-15p12-17-15p12-17-15p12-17-15p12-17-15p12h15\------|
|----------------------------------------------------------------|
|----------------------------------------------------------------|
|----------------------------------------------------------------|
|----------------------------------------------------------------|
|----------------------------------------------------------------|
|
|  E        E        E        E        E        E        E  E
|----------------------------------------------------------------|
|----------------------------------------------------------------|
|----------------------------------------------------------------|
|--7--------7--------7--------7--------6--------6--------6--6----|
|--5--------5--------5--------5--------4--------4--------4--4----|
|----------------------------------------------------------------|


  G5       Ab5 Eb5   D5              C#5
  \5
  W                   E   E   E   E   +H
|------------------|-----------------------------|
|------------------|-----------------------------|
|-0----------------|-------------<4>-(<4>)-------|
|-0----------------|-<5>-----<5>-----------------|
|------------------|-----<5>---------------------|
|------------------|-----------------------------|
|
| E  E E E E E E E    E   E   E   E    E   E E E
|------------------|-----------------------------|
|------------------|-----------------------------|
|------------------|-----------------------------|
|--------------8-8-|--7---7---7---7----6---6-6-6-|
|-5--5-5-5-6-6-6-6-|--5---5---5---5----4---4-4-4-|
|-3--3-3-3-4-4-----|-----------------------------|


  G5                          Ab5           Eb5
  \1/ \1/ \1/   \1/   \1/ \1/ \1/ \1/   \1/   \1/
  ~~~~~~~~~~~~~~~~~~~~~~~~~~~~~~~~~~~~~~~~~~~~~~~~~~~~
  S   S   S   S S   S S   S   S   S   S S   S S   S S
|-----------------------------------------------------|
|-----------------------------------------------------|
|-----------------------------5h==7p==5h7p==5h7p==5h7-|
|-5h==7p==5h==7p5h==7p5h==7---------------------------|
|-----------------------------------------------------|
|-----------------------------------------------------|
|
| E       E     E     E       E       E     E     E
|-----------------------------------------------------|
|-----------------------------------------------------|
|-----------------------------------------------------|
|-------------------------------------------8-----8---|
|-5-------5-----5-----5-------6-------6-----6-----6---|
|-3-------3-----3-----3-------4-------4---------------|


  D5                  C#5         G5       Ab5 Eb5    D5      C#5
                      \1/   \2\2  \2\2\2\2 \2\2\2\2   \2\2\2\2\2 \1
                            ~~~~~~~~~~~~~~~~~~~~~~~~~~~~~~~~~~~~~
   Q       a    +Q    Q     E E   E E E E  E E E E    E E E E E  Q.
|-------------------------------|-------------------|-------------------|
|-------------------------------|-------------------|-------------------|
|-[7]b9r==(7)b9-(7)-------------|-------------------|------------0------|
|-------------------------------|----------3p0h5p3--|------------0------|
|---------------------0-----5p3p|=0h5p3p0-----------|-5p3p0h5p3---------|
|---------------------0---------|-------------------|-------------------|
|
|  E    E        E  E E   E E E   E E E E  E E E E    E E E E E  E  E E
|-------------------------------|-------------------|-------------------|
|-------------------------------|-------------------|-------------------|
|-------------------------------|-------------------|-------------------|
|--7----7--------7--7-6---6-6-6-|--------------8-8--|-7-7-7-7-6--6--6-6-|
|--5----5--------5--5-4---4-4-4-|-5-5-5-5--6-6-6-6--|-5-5-5-5-4--4--4-4-|
|-------------------------------|-3-3-3-3--4-4------|-------------------|


 Verse 2
  G5        Ab5 Eb5   D5          C#5
                                   T
   W                   +W
|-------------------|-------------(7(19))-------|
|-------------------|---------------------------|
|-<5>---------------|-(<5>)---------------------|
|-<5>---------------|-(<5>)---------------------|
|-------------------|---------------------------|
|-------------------|---------------------------|
|                       H          H
|
|  E  E E E E E E E     E   E E E  E      E E E
|-------------------|---------------------------|
|-------------------|---------------------------|
|-------------------|---------------------------|
|---------------8-8-|---7---7-7-7--6------6-6-6-|
|--5--5-5-5-6-6-6-6-|---5---5-5-5--4------4-4-4-|
|--3--3-3-3-4-4-----|---------------------------|


    G5            Ab5 Eb5   D5            C#5
     T                       T
    +W                      +W                      3x
||--(7(19))---------------|-(7(19))-----------------||
||o-----------------------|------------------------o||
||------------------------|-------------------------||
||------------------------|-------------------------||
||o-----------------------|------------------------o||
||------------------------|-------------------------||
|
|    E      E E E E E E E    E      E E E E E E E   3x
||------------------------|-------------------------||
||o-----------------------|------------------------o||
||------------------------|-------------------------||
||--------------------8-8-|--7------7-7-7-6-6-6-6---||
||o--5------5-5-5-6-6-6-6-|--5------5-5-5-4-4-4-4--o||
||---3------3-3-3-4-4-----|-------------------------||


   Chorus
    Q=250
    N.C.
    Gtrs I, II
    PM--------------------------------------------------------------|
    S S S S S S S S S S S S S S S S   S S S S S S S S S S S S S S S S
||----------------------------------|----------------------------------||
||o---------------------------------|---------------------------------o||
||----------------------------------|----------------------------------||
||----------------------------------|----------------------------------||
||o---------4-4-4-4-3-3-3-3---------|---------4-4-4-4-3-3-3-3---------o||
||--3-3-3-3-----------------4-4-4-4-|-3-3-3-3-----------------4-4-4-4--||


 Outro
             E5      G5          F#5         F5
  W          S S S S  S  S  S  S  S  S  S  S  S  S  S  S
|----------|---------------------------------------------|
|----------|---------------------------------------------|
|----------|---------------------------------------------|
|----------|-9-9-9-9-12-12-12-12-11-11-11-11-10-10-10-10-|
|----------|-7-7-7-7-10-10-10-10--9--9--9--9--8--8--8--8-|
|----------|---------------------------------------------|


  E5      G5          F#5         F5            E5
  S S S S  S  S  S  S  S  S  S  S  S  S  S  S   E E Q  H
|---------------------------------------------|-------------*|
|---------------------------------------------|-------------*|
|---------------------------------------------|-------------*|
|-9-9-9-9-12-12-12-12-11-11-11-11-10-10-10-10-|-9-----------*|
|-7-7-7-7-10-10-10-10--9--9--9--9--8--8--8--8-|-7-----------*|
|---------------------------------------------|-------------*|



Duration Legend
---------------
W - whole; H - half; Q - quarter; E - 8th; S - 16th; T - 32nd; X - 64th; a - acciaccatura
+ - note tied to previous; . - note dotted; .. - note double dotted
Uncapitalized letters represent notes that are staccato (1/2 duration)
Irregular groupings are notated above the duration line
Duration letters will always appear directly above the note/fret number it represents the
duration for.  Duration letters with no fret number below them represent rests.  Multi-
bar rests are notated in the form Wxn, where n is the number of bars to rest for.  Low
melody durations appear below the staff

Tablature Legend
----------------
 h   - hammer-on
 p   - pull-off
 b   - bend
 pb  - pre-bend
 r   - bend release (if no number after the r, then release immediately)
 /\  - slide into or out of (from/to "nowhere")
 s   - legato slide
 S   - shift slide
 - natural harmonic
[n]  - artificial harmonic
n(n) - tapped harmonic
 ~   - vibrato
 tr  - trill
 T   - tap
 TP  - trem. picking
 PM  - palm muting
\n/  - tremolo bar dip; n = amount to dip
 \n  - tremolo bar down
 n/  - tremolo bar up
/n\  - tremolo bar inverted dip
 =   - hold bend; also acts as connecting device for hammers/pulls
 <> - volume swell (louder/softer)
 x   - on rhythm slash represents muted slash
 o   - on rhythm slash represents single note slash

Misc Legend
-----------
 |  - bar
||  - double bar
||o - repeat start
o|| - repeat end
*|  - double bar (ending)
 :  - bar (freetime)
 $  - Segno
 &  - Coda
Tempo markers -  = BPM(8/16=s8/s16), where s8 = swing 8ths, s16 = swing 16ths

Tap to rate this tab
 
# A B C D E F G H I J K L M N O P Q R S T U V W X Y Z