Guitaretab - guitar tabs
Song name
# A B C D E F G H I J K L M N O P Q R S T U V W X Y Z

Slayer - Read Between The Lines tab

#----------------------------------PLEASE NOTE---------------------------------#
#This file is the author's own work and represents their interpretation of the #
#song. You may only use this file for private study, scholarship, or research. #
#------------------------------------------------------------------------------#

READ BETWEEN THE LINES
As recorded by Slayer
(From the 1988 Album SOUTH OF HEAVEN)

Transcribed by Fenian
	

Words by Tom Araya & Kerry King Music by Jeff Hanneman

E5
0 2 x x x x

Gtr I (Eb Ab Db Gb Bb Eb) - 'Untitled'
Gtr II (Eb Ab Db Gb Bb Eb) - 'Untitled'
Gtr III (Eb Ab Db Gb Bb Eb) - 'Untitled'

   Intro
    Q=192                          1.,2.,3.,4.     5.
   3/4           4/4               3/4             7/8
    Gtrs I, II
            PM|     PM|   PM|   PM--|   PM|   PM----|   PM|   PM|
    E E E E E E   E E E E E E E E   E E E E E E  4x E E E E E E E
||--------------|-----------------|--------------||----------------||
||o-------------|-----------------|-------------o||----------------||
||--------------|-----------------|--------------||----------------||
||--------------|-5-----5-----5---|---5-----5----||---5-----5------||
||o-2-3-6-5-----|-4-----4-----4---|---4-----4---o||---4-----4------||
||--0-1-4-3-0-0-|---0-0---0-0---0-|-0---0-0---0--||-0---0-0---0-0--||


  E5
 4/4
  Gtr II
  H..             E   +Q   +Q   +Q   +Q    E E Q   H         W
  |               |    |    |    |    |    |
  /               x    x    x    x    x    /

  Gtr I
  PM----|     PM|           PM|       ~~   PM--|     PM|         PM|     ~
  E   E E E E E E E    E E  E E  E E  Q    E E E E E E E E   E E E E E E Q
|-------------------|--------------------|-----------------|----------------||
|-------------------|--------------------|-----------------|----------------||
|-------------------|--------------------|-----------------|----------------||
|-------------------|--7-6---------6--5--|-----------------|-7-6-------6-5--||
|---------7-8-----8-|------------7-------|-------7-8-----8-|---------7------||
|-0---0-0-----0-0---|-------0-0----------|-0-0-0-----0-0---|-----0-0--------||


 Verse
  Gtrs I, II
  PM--|     PM|         PM|     ~    PM--|     PM|         PM|     ~
  E E E E E E E E   E E E E E E Q    E E E E E E E E   E E E E E E Q
|-----------------|----------------|-----------------|----------------|
|-----------------|----------------|-----------------|----------------|
|-----------------|----------------|-----------------|----------------|
|-----------------|-7-6-------6-5--|-----------------|-7-6-------6-5--|
|-------7-8-----8-|---------7------|-------7-8-----8-|---------7------|
|-0-0-0-----0-0---|-----0-0--------|-0-0-0-----0-0---|-----0-0--------|


  PM--|     PM|         PM|     ~    PM--|     PM|         PM|     ~
  E E E E E E E E   E E E E E E Q    E E E E E E E E   E E E E E E Q
|-----------------|----------------|-----------------|----------------|
|-----------------|----------------|-----------------|----------------|
|-----------------|----------------|-----------------|----------------|
|-----------------|-7-6-------6-5--|-----------------|-7-6-------6-5--|
|-------7-8-----8-|---------7------|-------7-8-----8-|---------7------|
|-0-0-0-----0-0---|-----0-0--------|-0-0-0-----0-0---|-----0-0--------|


  Gtr I
  PM--|     PM|         PM|     ~    PM--|     PM|         PM|     ~
  E E E E E E E E   E E E E E E Q    E E E E E E E E   E E E E E E Q
|-----------------|----------------|-----------------|----------------|
|-----------------|----------------|-----------------|----------------|
|-----------------|----------------|-----------------|----------------|
|-----------------|-7-6-------6-5--|-----------------|-7-6-------6-5--|
|-------7-8-----8-|---------7------|-------7-8-----8-|---------7------|
|-0-0-0-----0-0---|-----0-0--------|-0-0-0-----0-0---|-----0-0--------|
|
| Gtr II
| PM--|     PM|         PM|     ~    PM--|     PM|         PM|     ~
| E E E E E E E E   E E E E E E Q    E E E E E E E E   E E E E E E Q
|-----------------|----------------|-----------------|----------------|
|-----------------|----------------|-----------------|----------------|
|-----------------|-7-6-------6-5--|-----------------|-7-6-------6-5--|
|-------7-8-----8-|---------7------|-------7-8-----8-|---------7------|
|-----------------|----------------|-----------------|----------------|
|-0-0-0-----0-0---|-----0-0--------|-0-0-0-----0-0---|-----0-0--------|


  PM--|     PM|         PM|     ~    PM--|     PM|         PM|     ~
  E E E E E E E E   E E E E E E Q    E E E E E E E E   E E E E E E Q
|-----------------|----------------|-----------------|----------------||
|-----------------|----------------|-----------------|----------------||
|-----------------|----------------|-----------------|----------------||
|-----------------|-7-6-------6-5--|-----------------|-7-6-------6-5--||
|-------7-8-----8-|---------7------|-------7-8-----8-|---------7------||
|-0-0-0-----0-0---|-----0-0--------|-0-0-0-----0-0---|-----0-0--------||
|
| PM--|     PM|         PM|     ~    PM--|     PM|         PM|     ~
| E E E E E E E E   E E E E E E Q    E E E E E E E E   E E E E E E Q
|-----------------|----------------|-----------------|----------------||
|-----------------|----------------|-----------------|----------------||
|-----------------|-7-6-------6-5--|-----------------|-7-6-------6-5--||
|-------7-8-----8-|---------7------|-------7-8-----8-|---------7------||
|-----------------|----------------|-----------------|----------------||
|-0-0-0-----0-0---|-----0-0--------|-0-0-0-----0-0---|-----0-0--------||


  Gtrs I, II
     PM|    PM|      PM----|          PM|    PM|      PM----|
  Q  E E Q  E E   Q  E E E E E E   Q  E E Q  E E   Q  E E E E E E
|---------------|----------------|---------------|----------------|
|---------------|----------------|---------------|----------------|
|---------------|----------------|---------------|----------------|
|-2------2------|-2--------------|-2------2------|-2--------------|
|-1------1------|-1--------------|-1------1------|-1--------------|
|----0-0----0-0-|----0-0-0-0-3p0-|----0-0----0-0-|----0-0-0-0-3p0-|


     PM|    PM|      PM----|          PM|    PM|      PM----|
  Q  E E Q  E E   Q  E E E E E E   Q  E E Q  E E   Q  E E E E E E
|---------------|----------------|---------------|----------------||
|---------------|----------------|---------------|----------------||
|---------------|----------------|---------------|----------------||
|-2------2------|-2--------------|-2------2------|-2--------------||
|-1------1------|-1--------------|-1------1------|-1--------------||
|----0-0----0-0-|----0-0-0-0-3p0-|----0-0----0-0-|----0-0-0-0-3p0-||


 Verse
  Gtrs I, II
  PM--|     PM|         PM|     ~    PM--|     PM|         PM|     ~
  E E E E E E E E   E E E E E E Q    E E E E E E E E   E E E E E E Q
|-----------------|----------------|-----------------|----------------|
|-----------------|----------------|-----------------|----------------|
|-----------------|----------------|-----------------|----------------|
|-----------------|-7-6-------6-5--|-----------------|-7-6-------6-5--|
|-------7-8-----8-|---------7------|-------7-8-----8-|---------7------|
|-0-0-0-----0-0---|-----0-0--------|-0-0-0-----0-0---|-----0-0--------|


  PM--|     PM|         PM|     ~    PM--|     PM|         PM|     ~
  E E E E E E E E   E E E E E E Q    E E E E E E E E   E E E E E E Q
|-----------------|----------------|-----------------|----------------|
|-----------------|----------------|-----------------|----------------|
|-----------------|----------------|-----------------|----------------|
|-----------------|-7-6-------6-5--|-----------------|-7-6-------6-5--|
|-------7-8-----8-|---------7------|-------7-8-----8-|---------7------|
|-0-0-0-----0-0---|-----0-0--------|-0-0-0-----0-0---|-----0-0--------|


  Gtr I
  PM--|       PM|           PM|      ~
  E E E  E  E E E  E    E E E E  E E Q
|--------------------|------------------|
|--------------------|------------------|
|--------------------|------------------|
|--------------------|--7-6--------6-5--|
|--------7--8------8-|-----------7------|
|-0-0-0-------0-0----|------0-0---------|
|
| Gtr II
| PM--|       PM|           PM|      ~
| E E E  E  E E E  E    E E E E  E E Q
|--------------------|------------------|
|--------------------|------------------|
|--------------------|------------------|
|--------------------|-10-9--------9-8--|
|-------10-11-----11-|----------10------|
|-0-0-0-------0-0----|------0-0---------|


  PM--|       PM|           PM|      ~
  E E E  E  E E E  E    E E E E  E E Q
|--------------------|------------------|
|--------------------|------------------|
|--------------------|------------------|
|--------------------|--7-6--------6-5--|
|--------7--8------8-|-----------7------|
|-0-0-0-------0-0----|------0-0---------|
|
| PM--|       PM|           PM|      ~
| E E E  E  E E E  E    E E E E  E E Q
|--------------------|------------------|
|--------------------|------------------|
|--------------------|------------------|
|--------------------|-10-9--------9-8--|
|-------10-11-----11-|----------10------|
|-0-0-0-------0-0----|------0-0---------|


  PM--|       PM|           PM|      ~
  E E E  E  E E E  E    E E E E  E E Q
|--------------------|------------------|
|--------------------|------------------|
|--------------------|------------------|
|--------------------|--7-6--------6-5--|
|--------7--8------8-|-----------7------|
|-0-0-0-------0-0----|------0-0---------|
|
| PM--|       PM|           PM|      ~
| E E E  E  E E E  E    E E E E  E E Q
|--------------------|------------------|
|--------------------|------------------|
|--------------------|------------------|
|--------------------|-10-9--------9-8--|
|-------10-11-----11-|----------10------|
|-0-0-0-------0-0----|------0-0---------|


  PM--|       PM|           PM|      ~
  E E E  E  E E E  E    E E E E  E E Q
|--------------------|------------------||
|--------------------|------------------||
|--------------------|------------------||
|--------------------|--7-6--------6-5--||
|--------7--8------8-|-----------7------||
|-0-0-0-------0-0----|------0-0---------||
|
| PM--|       PM|           PM|      ~
| E E E  E  E E E  E    E E E E  E E Q
|--------------------|------------------||
|--------------------|------------------||
|--------------------|------------------||
|--------------------|-10-9--------9-8--||
|-------10-11-----11-|----------10------||
|-0-0-0-------0-0----|------0-0---------||


  Gtrs I, II
     PM|    PM|      PM----|          PM|    PM|      PM----|
  Q  E E Q  E E   Q  E E E E E E   Q  E E Q  E E   Q  E E E E E E
|---------------|----------------|---------------|----------------|
|---------------|----------------|---------------|----------------|
|---------------|----------------|---------------|----------------|
|-2------2------|-2--------------|-2------2------|-2--------------|
|-1------1------|-1--------------|-1------1------|-1--------------|
|----0-0----0-0-|----0-0-0-0-3p0-|----0-0----0-0-|----0-0-0-0-3p0-|


     PM|    PM|      PM----|          PM|    PM|      PM----|
  Q  E E Q  E E   Q  E E E E E E   Q  E E Q  E E   Q  E E E E E E
|---------------|----------------|---------------|----------------||
|---------------|----------------|---------------|----------------||
|---------------|----------------|---------------|----------------||
|-2------2------|-2--------------|-2------2------|-2--------------||
|-1------1------|-1--------------|-1------1------|-1--------------||
|----0-0----0-0-|----0-0-0-0-3p0-|----0-0----0-0-|----0-0-0-0-3p0-||


 Interlude
     PM|    PM|      PM----|          PM|    PM|      PM----|
  Q  E E Q  E E   Q  E E E E E E   Q  E E Q  E E   Q  E E E E E E
|---------------|----------------|---------------|----------------|
|---------------|----------------|---------------|----------------|
|---------------|----------------|---------------|----------------|
|-2------2------|-2--------------|-2------2------|-2--------------|
|-1------1------|-1--------------|-1------1------|-1--------------|
|----0-0----0-0-|----0-0-0-0-3p0-|----0-0----0-0-|----0-0-0-0-3p0-|


     PM|    PM|      PM----|          PM|    PM|      PM----|
  Q  E E Q  E E   Q  E E E E E E   Q  E E Q  E E   Q  E E E E E E
|---------------|----------------|---------------|----------------||
|---------------|----------------|---------------|----------------||
|---------------|----------------|---------------|----------------||
|-2------2------|-2--------------|-2------2------|-2--------------||
|-1------1------|-1--------------|-1------1------|-1--------------||
|----0-0----0-0-|----0-0-0-0-3p0-|----0-0----0-0-|----0-0-0-0-3p0-||


 Guitar Solo
  Gtr III
                     \1.5
                                  ~~
   Q       Q        +H            H.           Q
|---------12-------(12)---------|--------------------|
|-15b17---15b17====(15)r--------|--------------7b10r=|
|-------------------------------|--------------------|
|-------------------------------|--------------------|
|-------------------------------|--------------------|
|-------------------------------|-2------------------|
|
| Gtrs I, II
|  PM---|        PM-----------|        PM----|
|  E    E  E     E   E    E E E   E  E E E E E Q
|-------------------------------|--------------------|
|-------------------------------|--------------------|
|-------------------------------|--------------------|
|-------------------------------|--------------------|
|----------4--------------------|-4--3---------7-----|
|--2----2--------2---2----2-2-2-|------2-2-2-2-5-----|


                                                 \1/
                                         ~
   a      +Q     a      +H.              H       H
|--------------------------------------|-------------------|
|-(7)b10==(7)r==(7)b10==(7)r-----------|---------0---------|
|--------------------------------------|-------------------|
|--------------------------------------|-------------------|
|--------------------------------------|-------------------|
|--------------------------------------|-0-----------------|
|
|          PM-|              PM----|       PM--------|
|          E  E          E   E E E E E   E E E E E   E Q
|--------------------------------------|-------------------|
|--------------------------------------|-------------------|
|--------------------------------------|-------------------|
|--------------------------------------|-------------------|
|------------------------4-----------4-|-3-------------7---|
|----------2--2--------------2-2-2-2---|---2-2-2-2---2-5---|


   \1/                   /
   W                    +W
|--------------------|--------------------|
|-<4>----------------|-(<4>)--------------|
|--------------------|--------------------|
|--------------------|--------------------|
|--------------------|--------------------|
|--------------------|--------------------|
|
|  PM--|   PM------|           PM----|
|  E   E E E E E E E     E   E E E E E Q
|--------------------|--------------------|
|--------------------|--------------------|
|--------------------|--------------------|
|--------------------|--------------------|
|--------4-----------|---4---3---------7--|
|--2---2---2-2-2-2-2-|---------2-2-2-2-5--|

[ Tab from: http://www.guitaretab.com/s/slayer/112978.html ]
  \1.5__________________\1.5
  W                     W
|---------------------|--------------------|
|-3-------------------|--------------------|
|---------------------|--------------------|
|---------------------|--------------------|
|---------------------|-0------------------|
|---------------------|--------------------|
|
| PM----|   PM----|          PM------|
| E     E E E E E E E   E    E E E E E Q
|---------------------|--------------------|
|---------------------|--------------------|
|---------------------|--------------------|
|---------------------|--------------------|
|---------4---------4-|-3--------------7---|
|-2-----2---2-2-2-2---|------2-2-2-2-2-5---|


   \1.5/             \1.5      \1.5/             \1.5/
   H.               +Q         H.               +Q
|---------------------------|---------------------------|
|---------------------------|---------------------------|
|---------------------------|---------------------------|
|-[3]--------------([3])----|-[3]--------------([3])----|
|---------------------------|---------------------------|
|---------------------------|---------------------------|
|
|  PM----|   PM-----------|            PM----|
|  E     E E E E E   E    E    E     E E E E E   Q
|---------------------------|---------------------------|
|---------------------------|---------------------------|
|---------------------------|---------------------------|
|---------------------------|---------------------------|
|----------4----------------|--4-----3-----------7------|
|--2-----2---2-2-2---2----2-|----------2-2-2-2---5------|


    \1.5/         \1.5/     \1.5/       \1.5/
   +H            +Q        +Q          +W
|-----------------------------------|-----------------------|
|-----------------------------------|-----------------------|
|-----------------------------------|-----------------------|
|-([3])---------([3])-----([3])-----|-([3])-----------------|
|-----------------------------------|-----------------------|
|-----------------------------------|-----------------------|
|
|   PM----|   PM----------|                   PM------|
|   E     E E E   E     E   E     E     E     E E E E E Q
|-----------------------------------|-----------------------|
|-----------------------------------|-----------------------|
|-----------------------------------|-----------------------|
|-----------------------------------|-----------------------|
|-----------4---------------------4-|---3---------------7---|
|---2-----2---2---2-----2---2-------|---------2-2-2-2-2-5---|


   \1.5/     \1.5/     \1.5/           /          \1/     \1/
   Q        +Q        +H              +H          Q      +Q
|----------------------------------|---------------------------|
|----------------------------------|---------------------------|
|----------------------------------|---------------------------|
|-[3]------([3])-----([3])---------|-([3])-------<4>----(<4>)--|
|----------------------------------|---------------------------|
|----------------------------------|---------------------------|
|
|  PM----|         PM------------|           PM-------|
|  E     E   E     E   E     E E E     E   E E E  E   E   Q
|----------------------------------|---------------------------|
|----------------------------------|---------------------------|
|----------------------------------|---------------------------|
|----------------------------------|---------------------------|
|------------4---------------------|---4---3--------------7----|
|--2-----2---------2---2-----2-2-2-|---------2-2--2---2---5----|


  \1.5___________________|
                         ~~~
  W                     +W
|---------------------|-------------------||
|---------------------|-------------------||
|---------------------|-------------------||
|-0-------------------|-(0)---------------||
|---------------------|-------------------||
|---------------------|-------------------||
|
| PM----|   PM----|         PM------|
| E     E E E E E E E    E  E E E E E Q
|---------------------|-------------------||
|---------------------|-------------------||
|---------------------|-------------------||
|---------------------|-------------------||
|---------4---------4-|--3------------7---||
|-2-----2---2-2-2-2---|-----2-2-2-2-2-5---||


   \1/     \1/
                                          ~~~~~~~~~
   Q      +H.               H            +H
|------------------------|------------------------|
|-<4>----(<4>)-----------|-10b11========(10)------|
|------------------------|------------------------|
|------------------------|------------------------|
|------------------------|------------------------|
|------------------------|------------------------|
|
|  PM--|       PM------|            PM-------|
|  E   E   E   E E E E E    E     E E E   E  E Q
|------------------------|------------------------|
|------------------------|------------------------|
|------------------------|------------------------|
|------------------------|------------------------|
|----------5-------------|--5-----4------------8--|
|--3---3-------3-3-3-3-3-|----------3-3---3--3-6--|


              \0.5___________|
 ~~~~~~~
   +H         H             +W
|-------------------------|-------------------|
|-(10)r-------------------|-------------------|
|-------------0-----------|-(0)---------------|
|-------------------------|-------------------|
|-------------------------|-------------------|
|-------------------------|-------------------|
|
|   PM--|   PM--------|         PM------|
|   E   E E E E     E E E    E  E E E E E Q
|-------------------------|-------------------|
|-------------------------|-------------------|
|-------------------------|-------------------|
|-------------------------|-------------------|
|---------5-------------5-|--4------------8---|
|---3---3---3-3-----3-3---|-----3-3-3-3-3-6---|


          \1/       /0.5_________________\0.5
   Q     +H         Q         +H        +Q      Q
|---------------------------|----------------------|
|-[3]---([3])---------------|----------------------|
|---------------------------|----------------------|
|---------------------------|----------------------|
|-------------------3-------|-(3)-------(3)-----1--|
|---------------------------|----------------------|
|
|  PM-|       PM----------|         PM--------|
|  E  E   E   E E E E     E    E  E E E  E    E Q
|---------------------------|----------------------|
|---------------------------|----------------------|
|---------------------------|----------------------|
|---------------------------|----------------------|
|---------5-----------------|--5--4-------------8--|
|--3--3-------3-3-3-3-----3-|-------3-3--3----3-6--|


  \7
  W                  +W
|------------------|-------------------||
|------------------|-------------------||
|------------------|-------------------||
|------------------|-------------------||
|------------------|-------------------||
|-2----------------|-(2)---------------||
|
| PM-|   PM----|         PM------|
| E  E E E E E E E    E  E E E E E Q
|------------------|-------------------||
|------------------|-------------------||
|------------------|-------------------||
|------------------|-------------------||
|------5---------5-|--4------------8---||
|-3--3---3-3-3-3---|-----3-3-3-3-3-6---||


 Verse
  Gtrs I, II
  PM|   PM------|       PM----|      PM|   PM----|       PM------|
  E E E E E E E E   E E E E E E Q    E E E E E E E E   E E E E E E Q
|-----------------|----------------|-----------------|-----------------|
|-----------------|----------------|-----------------|-----------------|
|-----------------|----------------|-----------------|-----------------|
|-----------------|----------------|-----------------|-----------------|
|-----4-----------|-4-3---------7--|-----4---------4-|-3-----------7---|
|-2-2---2-2-2-2-2-|-----2-2-2-2-5--|-2-2---2-2-2-2---|---2-2-2-2-2-5---|


  PM|   PM------|       PM----|      PM|   PM----|       PM------|
  E E E E E E E E   E E E E E E Q    E E E E E E E E   E E E E E E Q
|-----------------|----------------|-----------------|-----------------|
|-----------------|----------------|-----------------|-----------------|
|-----------------|----------------|-----------------|-----------------|
|-----------------|----------------|-----------------|-----------------|
|-----4-----------|-4-3---------7--|-----4---------4-|-3-----------7---|
|-2-2---2-2-2-2-2-|-----2-2-2-2-5--|-2-2---2-2-2-2---|---2-2-2-2-2-5---|


  PM|   PM------|       PM----|      PM|   PM----|       PM------|
  E E E E E E E E   E E E E E E Q    E E E E E E E E   E E E E E E Q
|-----------------|----------------|-----------------|-----------------|
|-----------------|----------------|-----------------|-----------------|
|-----------------|----------------|-----------------|-----------------|
|-----------------|----------------|-----------------|-----------------|
|-----4-----------|-4-3---------7--|-----4---------4-|-3-----------7---|
|-2-2---2-2-2-2-2-|-----2-2-2-2-5--|-2-2---2-2-2-2---|---2-2-2-2-2-5---|


  PM|   PM------|       PM----|      PM|   PM----|       PM------|
  E E E E E E E E   E E E E E E Q    E E E E E E E E   E E E E E E Q
|-----------------|----------------|-----------------|-----------------|
|-----------------|----------------|-----------------|-----------------|
|-----------------|----------------|-----------------|-----------------|
|-----------------|----------------|-----------------|-----------------|
|-----5-----------|-5-4---------8--|-----5---------5-|-4-----------8---|
|-3-3---3-3-3-3-3-|-----3-3-3-3-6--|-3-3---3-3-3-3---|---3-3-3-3-3-6---|


  PM|   PM------|       PM----|      PM|   PM----|       PM------|
  E E E E E E E E   E E E E E E Q    E E E E E E E E   E E E E E E Q
|-----------------|----------------|-----------------|-----------------|
|-----------------|----------------|-----------------|-----------------|
|-----------------|----------------|-----------------|-----------------|
|-----------------|----------------|-----------------|-----------------|
|-----4-----------|-4-3---------7--|-----4---------4-|-3-----------7---|
|-2-2---2-2-2-2-2-|-----2-2-2-2-5--|-2-2---2-2-2-2---|---2-2-2-2-2-5---|


  PM|   PM------|       PM----|      PM|   PM----|       PM------|
  E E E E E E E E   E E E E E E Q    E E E E E E E E   E E E E E E Q
|-----------------|----------------|-----------------|-----------------||
|-----------------|----------------|-----------------|-----------------||
|-----------------|----------------|-----------------|-----------------||
|-----------------|----------------|-----------------|-----------------||
|-----4-----------|-4-3---------7--|-----4---------4-|-3-----------7---||
|-2-2---2-2-2-2-2-|-----2-2-2-2-5--|-2-2---2-2-2-2---|---2-2-2-2-2-5---||


  E5
  Gtr II
  E E Q   H         W
  |
  /

  Gtr I
  PM--|     PM|         PM|     ~
  E E E E E E E E   E E E E E E Q
|-----------------|----------------||
|-----------------|----------------||
|-----------------|----------------||
|-----------------|-7-6-------6-5--||
|-------7-8-----8-|---------7------||
|-0-0-0-----0-0---|-----0-0--------||


 Verse
  Gtrs I, II
  PM--|     PM|         PM|     ~    PM--|     PM|         PM|     ~
  E E E E E E E E   E E E E E E Q    E E E E E E E E   E E E E E E Q
|-----------------|----------------|-----------------|----------------|
|-----------------|----------------|-----------------|----------------|
|-----------------|----------------|-----------------|----------------|
|-----------------|-7-6-------6-5--|-----------------|-7-6-------6-5--|
|-------7-8-----8-|---------7------|-------7-8-----8-|---------7------|
|-0-0-0-----0-0---|-----0-0--------|-0-0-0-----0-0---|-----0-0--------|


  PM--|     PM|         PM|     ~    PM--|     PM|         PM|     ~
  E E E E E E E E   E E E E E E Q    E E E E E E E E   E E E E E E Q
|-----------------|----------------|-----------------|----------------|
|-----------------|----------------|-----------------|----------------|
|-----------------|----------------|-----------------|----------------|
|-----------------|-7-6-------6-5--|-----------------|-7-6-------6-5--|
|-------7-8-----8-|---------7------|-------7-8-----8-|---------7------|
|-0-0-0-----0-0---|-----0-0--------|-0-0-0-----0-0---|-----0-0--------|


  PM--|     PM|         PM|     ~    PM--|     PM|         PM|     ~
  E E E E E E E E   E E E E E E Q    E E E E E E E E   E E E E E E Q
|-----------------|----------------|-----------------|----------------|
|-----------------|----------------|-----------------|----------------|
|-----------------|----------------|-----------------|----------------|
|-----------------|-7-6-------6-5--|-----------------|-7-6-------6-5--|
|-------7-8-----8-|---------7------|-------7-8-----8-|---------7------|
|-0-0-0-----0-0---|-----0-0--------|-0-0-0-----0-0---|-----0-0--------|


  PM--|     PM|         PM|     ~    PM--|     PM|         PM|     ~
  E E E E E E E E   E E E E E E Q    E E E E E E E E   E E E E E E Q
|-----------------|----------------|-----------------|----------------||
|-----------------|----------------|-----------------|----------------||
|-----------------|----------------|-----------------|----------------||
|-----------------|-7-6-------6-5--|-----------------|-7-6-------6-5--||
|-------7-8-----8-|---------7------|-------7-8-----8-|---------7------||
|-0-0-0-----0-0---|-----0-0--------|-0-0-0-----0-0---|-----0-0--------||


 Outro
                                                      2/4
  Gtrs I, II
  PM--|     PM|         PM|     ~    PM--|     PM|         PM|
  E E E E E E E E   E E E E E E Q    E E E E E E E E   E E E E
|-----------------|----------------|-----------------|----------||
|-----------------|----------------|-----------------|----------||
|-------7---------|----------------|-------7---------|----------||
|---------8-----7-|-8-------7------|---------8-----7-|-8--------||
|-----------------|---9-------8-7--|-----------------|---9------||
|-0-0-0-----0-0---|-----0-0--------|-0-0-0-----0-0---|-----0-0--||


   3/4           4/4               3/4
            PM|     PM|   PM|   PM--|   PM|   PM
    E E E E E E   E E E E E E E E   E E E E E E  4x E E E E Q
||--------------|-----------------|--------------||------------*|
||o-------------|-----------------|-------------o||------------*|
||--------------|-----------------|--------------||------------*|
||--------------|-5-----5-----5---|---5-----5----||------------*|
||o-2-3-6-5-----|-4-----4-----4---|---4-----4---o||-2-3-6-5----*|
||--0-1-4-3-0-0-|---0-0---0-0---0-|-0---0-0---0--||-0-1-4-3----*|



Duration Legend
---------------
W - whole; H - half; Q - quarter; E - 8th; S - 16th; T - 32nd; X - 64th; a - acciaccatura
+ - note tied to previous; . - note dotted; .. - note double dotted
Uncapitalized letters represent notes that are staccato (1/2 duration)
Irregular groupings are notated above the duration line
Duration letters will always appear directly above the note/fret number it represents the
duration for.  Duration letters with no fret number below them represent rests.  Multi-
bar rests are notated in the form Wxn, where n is the number of bars to rest for.  Low
melody durations appear below the staff

Tablature Legend
----------------
 h   - hammer-on
 p   - pull-off
 b   - bend
 pb  - pre-bend
 r   - bend release (if no number after the r, then release immediately)
 /\  - slide into or out of (from/to "nowhere")
 s   - legato slide
 S   - shift slide
 - natural harmonic
[n]  - artificial harmonic
n(n) - tapped harmonic
 ~   - vibrato
 tr  - trill
 T   - tap
 TP  - trem. picking
 PM  - palm muting
\n/  - tremolo bar dip; n = amount to dip
 \n  - tremolo bar down
 n/  - tremolo bar up
/n\  - tremolo bar inverted dip
 =   - hold bend; also acts as connecting device for hammers/pulls
 <> - volume swell (louder/softer)
 x   - on rhythm slash represents muted slash
 o   - on rhythm slash represents single note slash

Misc Legend
-----------
 |  - bar
||  - double bar
||o - repeat start
o|| - repeat end
*|  - double bar (ending)
 :  - bar (freetime)
 $  - Segno
 &  - Coda
Tempo markers -  = BPM(8/16=s8/s16), where s8 = swing 8ths, s16 = swing 16ths

Related for Read Between The Lines tab
Advertisement will be closed in 10 seconds