Song name
# A B C D E F G H I J K L M N O P Q R S T U V W X Y Z

Slayer - Give Me A Reason tab

Band- Slayer
Song- Give Me A Reason

Intro
-----------------------------------------------------------------------------------|
-14--16--14--16--14--16--18--16--14--14----14--16--14--16--14--16--13--14--16--18--|
-----------------------------------------------------------------------------------|
-----------------------------------------------------------------------------------|
-----------------------------------------------------------------------------------|
-----------------------------------------------------------------------------------|

-----------------------------------------------------------------------------------|
-14--16--14--16--14--16--18--16--14--14----14--16--14--16--14--16--13--14--13--14--|
-----------------------------------------------------------------------------------|
-----------------------------------------------------------------------------------|
-----------------------------------------------------------------------------------|
-----------------------------------------------------------------------------------|


Guitar plays this four times, while the intro is being repeated;
-------------------------|
-------------------------|
-------------------------|
-11--13--11--13--11--13--|
-------------------------|
-------------------------|

Guitar 2 plays this;

-------------------------------------------|
-------------------------------------------|	Boxed notes
-------------------------------------------|	are palm muted
-------------------------------------------|
--4-(4444)---------------------------------|
------------4-(4444)--6-(6666)--s13--11----|

Guitar Solo:
------------------------------------------------------------------------------------|
------------------------------------------------------------------------------------|
---------------------------9------12---12--11----------------------------------B12--|
-------------------10--12-----12---------------12----------------------12--14-------|
-----7--8--10--10----------------------------------12--12--14--15--15---------------|
--8---------------------------------------------------------------------------------|

----------------------------------------------|
---------------------------16-----------------|
------14--15--b17--17--18------18-p17---------|
--15----------------------------------h18-----|
----------------------------------------------|
----------------------------------------------|
Tap to rate this tab
# A B C D E F G H I J K L M N O P Q R S T U V W X Y Z