Song name
# A B C D E F G H I J K L M N O P Q R S T U V W X Y Z

Slayer - Payback tab

Band- Slayer
Song- Payback

INTRO:

B:---------------------------------------|
F#:--------------------------------------|
D:---------------------------------------|
A:---------------------------------------|
E:-2--------3--------4--------4-5--2-3-3-|
B:-0-000000-1-000000-2-000000-2-3--0-1-1-|


   repeat            ending
:-----------------|---------------|-----------------|
:-----------------|---------------|-----------------|
:-----------------|---------------|-----------------|
:-----------------|---------------|-----------------|
:---4-5--2-3-3--5-|-2-3--7~~~-(7)-|-----------------|
:---2-3--0-1-1--3-|-0-1--5~~~-(5)-|-320-320-320-320-|

  verse
:----------------------------------------------------------------------------|
:----------------------------------------------------------------------------|
:----------------------------------------------------------------------------|
:----------------------------------------------------------------------------|
:-2--------666666---------666666-555555---------3333333--------666-----------|
:-0-000000-444444-0000000-444444-333333-0000000-1111111-000000-444444-33333--|


    repeat
:------------------|
:------------------|
:------------------|
:------------------|
:------------------|
:--00000-3-2-0-2-0-|



:-------------------------|
:-------------------------|
:-------------------------|
:-------------------------|
:-------------1111-000000-|
:-000000-3333-------------|
Tap to rate this tab
 
# A B C D E F G H I J K L M N O P Q R S T U V W X Y Z