Song name
# A B C D E F G H I J K L M N O P Q R S T U V W X Y Z

Slayer - What Were All About tab

Band- Slayer
Song- What We're All About

solo            
Eb|-----------------------------------------24b--24b~~~~--|
Bb|-------------------------------------------------------|
F#|-/14-14-14~~~~----0----(0)-----(0)h5NH-----------------|
C#|-------------------------------------------------------|
G#|-------------------------------------------------------|
C#|-------------------------------------------------------|

          bar/\/\
Eb|--------------------------------------------------------------------------------------|
Bb|--------------------------------------------------------------------------------------|
F#|---0--(0)--(0)h5NH-(5NH)~~~-----------0---9h11p9h11p9h11p9---3/12----14--11----11/23\-|
C#|-----------------------------7AH~~~---------------------------------------------------|
G#|--------------------------------------------------------------------------------------|
C#|--------------------------------------------------------------------------------------|


Eb|-22--22bf--22b~~~--21-22-24-22-21--20-21-23-21-20--19-20-22-20-19-|
Bb|------------------------------------------------------------------|
F#|------------------------------------------------------------------|
C#|------------------------------------------------------------------|
G#|------------------------------------------------------------------|
C#|------------------------------------------------------------------|

                              repeat 2 times
Eb|-18-19-21-19-18----------|-------------------------|---------------------|
Bb|----------------21-19-18-|-------------------------|20----19----18----16-|
F#|-------------------------|----------------20-------|---19----18----17----|
C#|-------------------------|-18----18-20-21----21-20-|---------------------|
G#|-------------------------|----21-------------------|---------------------|
C#|-------------------------|-------------------------|---------------------|
Tap to rate this tab
 
# A B C D E F G H I J K L M N O P Q R S T U V W X Y Z