Song name
# A B C D E F G H I J K L M N O P Q R S T U V W X Y Z

Slayer - Divine Intervention tab

----------------------------------------------------------------------------
	      Divine Intervention Album - Slayer
----------------------------------------------------------------------------

Tabbed By: Brack

1. Killing Fields

Tuning Eb


 RIFF 1 INTRO

|--------------------------------------------------------------------|
|--------------------------------------------------------------------|
|--------------------------------------------------------------------|
|--------------------------------------------------------------------|
|-2-2----------------------------------------------------------------|
|-0-0----------------------------------------------------------------|
  .

|--------------------------------------------------------------------|
|--------------------------------------------------------------------|
|--------------------------------------------------------------------|
|--------------------------------------------------------------------|
|-x\\\\-----x\\\\----x\\\\----x\\\\----------------------------------|
|-x\\\\-----x\\\\----x\\\\----x\\\\----------------------------------|



 RIFF 2A INTRO x1

|KING
|---------------------------------|---------------------------------|
|---------------------------------|---------------------------------|
|---------------------------------|---------------------------------|
|---------------------------------|---------------------------------|
|-2-2-----2-3-----2-4-----2-4-----|-2-2-----2-3-----2-4-----2-4-6---|
|-0-0-0-0-0-1-0-0-0-2-0-0-0-3-0-0-|-0-0-0-0-0-1-0-0-0-2-0-0-0-3-4---|
|     . .     . .     . .     . .       . .     . .     . .
|
|HANNEMAN
|---------------------------------|---------------------------------|
|---------------------------------|---------------------------------|
|---------------------------------|---------------------------------|
|---------------------------------|---------------------------------|
|-2-2-----------------------------|-(2)-----------------------------|
|-0-0-----------------------------|-(0)-----------------------------|
  .


|KING
|---------------------------------|---------------------------------|
|---------------------------------|---------------------------------|
|---------------------------------|---------------------------------|
|---------------------------------|---------------------------------|
|-2-2-----2-3-----2-4-----2-4-----|-2-2-----2-3-----2-4-----2-4-6---|
|-0-0-0-0-0-1-0-0-0-2-0-0-0-3-0-0-|-0-0-0-0-0-1-0-0-0-2-0-0-0-3-4---|
|     . .     . .     . .     . .       . .     . .     . .
|
|HANNEMAN                           WAH & BAR  WAH & BAR
|---------------------------------|---------------------------------|
|---------------------------------|---------------------------------|
|---------------------------------|------------3////\\\\\\\\--------|
|---------------------------------|-2//\\\\-------------------------|
|-2-2-----------------------------|---------------------------------|
|-0-0-----------------------------|---------------------------------|
  .



 RIFF 2 INTRO x2

|---------------------------------|---------------------------------|
|---------------------------------|---------------------------------|
|---------------------------------|---------------------------------|
|---------------------------------|---------------------------------|
|-2-2-----2-3-----2-4-----2-4-----|-2-2-----2-3-----2-4-----2-4-6---|
|-0-0-0-0-0-1-0-0-0-2-0-0-0-3-0-0-|-0-0-0-0-0-1-0-0-0-2-0-0-0-3-4---|
      . .     . .     . .     . .       . .     . .     . .



 RIFF 3 BREAK x1

|KING
|-----------------------------------------------------|
|-----------------------------------------------------|
|-----------------------------------------------------|
|-----------------------------------------------------|
|-----------------------4-3-------------------4-----3-|
|-300200200100600300200-2-1-3002002001006003002-----1-|
| .....................     .................. x
|
|HANNEMAN
|-----------------------------------------------------|
|-----------------------------------------------------|
|-----------------------------------------------------|
|-----------------------------------------------------|
|-5--------3--8---------4-3-------------------4-----3-|
|-3--------1--6---------2-1-3002002001006003002-----1-|
   x        x  x            .................. x



 RIFF 2B INTRO x4

|---------------------------------|---------------------------------|
|---------------------------------|---------------------------------|
|---------------------------------|---------------------------------|
|---------------------------------|---------------------------------|
|-2-2-----2-3-----2-4-----2-4-----|-2-2-----2-3-----2-4-----2-4-6---|
|-0-0-0-0-0-1-1-1-0-2-2-2-0-3-3-3-|-0-0-0-0-0-1-1-1-0-2-2-2-0-3-4---|
    . . .   . . .   . . .   . . .     . . .   . . .   . . .



 RIFF 4 BREAK x6

|---------------------|
|---------------------|
|---------------------|
|---------------------|
|---------------------|
|-000-0-0-0-000-0-000-|
  ... . . . ... . ...



 RIFF 5A INTO VERSE x1

|KING
|-------------------------------------------------|
|-------------------------------------------------|
|-------------------------------------------------|
|-----------------------------------------3-------|
|-----3-----------6-----------3-----------1-------|
|-000-1---000-000-4---000-000-1---000-000-----000-|
| ...     ... ...     ... ...     ... ...     ...
|
|HANNEMAN
|-------------------------------------------------|
|-------------------------------------------------|
|-------------------------------------------------|
|-------------------------------------------------|
|-2-----------------------------------------------|
|-0-----------------------------------------------|
   x


|KING
|-------------------------------------------------|
|-------------------------------------------------|
|-------------------------------------------------|
|-------------------------------------------------|
|-----3-----------6-----------3-----------6---4---|
|-000-1---000-000-4---000-000-1---000-000-6---4---|
| ...     ... ...     ... ...     ... ...
|
|HANNEMAN
|-------------------------------------------------|
|-------------------------------------------------|
|-------------------------------------------------|
|-------------------------------------------------|
|-----------------------------------------6---4---|
|-----------------------------------------6---4---|




 RIFF 5 VERSE x4

|-------------------------------------------------|
|-------------------------------------------------|
|-------------------------------------------------|
|-----------------------------------------3-------|
|-----3-----------6-----------3-----------1-------|
|-000-1---000-000-4---000-000-1---000-000-----000-|
  ...     ... ...     ... ...     ... ...     ...


|-------------------------------------------------|
|-------------------------------------------------|
|-------------------------------------------------|
|-------------------------------------------------|
|-----3-----------6-----------3-----------6---4---|
|-000-1---000-000-4---000-000-1---000-000-6---4---|
  ...     ... ...     ... ...     ... ...



 RIFF 6 CHORUS x2

|-------------------------------------------------|
|-------------------------------------------------|
|-------------------------------------------------|
|-------------------------------------------------|
|-2------1--2--5--4-------2------1--2--5--4--/7---|
|-2------1--2--5--4-------2------1--2--5--4--/7---|




 RIFF 5B INTO VERSE

|HANNEMAN
|-------------------------------------------------|
|-------------------------------------------------|
|-------------------------------------------------|
|-----------------------------------------3-------|
|-----3-----------6-----------3-----------1-------|
|-000-1---000-000-4---000-000-1---000-000-----000-|
| ...     ... ...     ... ...     ... ...     ...
|
|KING
|-------------------------------------------------|
|-------------------------------------------------|
|-------------------------------------------------|
|-----------------------------------------3-------|
|-2---------------------------------------1-------|
|-0-----------------------------------------------|
   x                                       x


|HANNEMAN
|-------------------------------------------------|
|-------------------------------------------------|
|-------------------------------------------------|
|-------------------------------------------------|
|-----3-----------6-----------3-----------6---4---|
|-000-1---000-000-4---000-000-1---000-000-6---4---|
| ...     ... ...     ... ...     ... ...
|
|KING
|-------------------------------------------------|
|-------------------------------------------------|
|-------------------------------------------------|
|-------------------------------------------------|
|-----------------6-----------------------6---4---|
|-----------------4-----------------------6---4---|
                   x



 RIFF 5 VERSE x2


 RIFF 6A CHORUS x2

|-------------------------------------------------|
|-------------------------------------------------|
|-------------------------------------------------|
|-------------------------------------------------|
|-3------2--3--6--5-------3------2--3--6--5--/8---|
|-3------2--3--6--5-------3------2--3--6--5--/8---|




 RIFF 7 BRIDGE x1

|----------------------------------------------------------|
|----------------------------------------------------------|
|----------------------------------------------------------|
|----------------------------------------------------------|
|----------------------------------------------------------|
|-222-222222-222222-222222-222222-222222-222222-222222-222-|
  ... ...... ...... ...... ...... ...... ...... ...... ...



 RIFF 7 BRIDGE x2 FASTER


 RIFF 8 BREAK x1
|BOTH
| WAH             WAH             WAH             WAH
|-----------------------------------------------------------------|
|-----------------------------------------------------------------|
|-----------------------------------------------------------------|
|-6---------------5-------------------------------8---------------|
|-6---------------5---------------7---------------8---------------|
|---------------------------------7-------------------------------|
|
|
|3RD GUITAR
|-----------------------------------------------------------------|
|-----------------------------------------------------------------|
|-----------------------------------------------------------------|
|-----------------------------------------------------------------|
|-----------------------------------------------------------------|
|-000-000-000-000-000-000-000-000-000-000-000-000-000-000-000-000-|
  ... ... ... ... ... ... ... ... ... ... ... ... ... ... ... ...




 RIFF 9 INTERLUDE x2

|-----------------------------------------------------------------|
|-----------------------------------------------------------------|
|-----------------------------------------------------------------|
|-----------------------------------------------------------------|
|-----------------------------------------------------------------|
|-4-444444-444444-3-333333-333333-0-000000-000000-000000-00000000-|
  . ...... ...... . ...... ...... . ...... ...... ...... ........


|-----------------------------------------------------------------|
|-----------------------------------------------------------------|
|-----------------------------------------------------------------|
|-----------------------------------------------------------------|
|-----------------------------------------------------------------|
|-4-444444-444444-3-3333-6-666666-0-000000-000000-000000-00000000-|
  . ...... ...... . .... . ...... . ...... ...... ...... ........




 SOLO KING
  WAH____________________________________________________________________
|-------------------------------------------------------------------------|
|-------------------------------------------------------------------------|
|-------------------------------------------------------17-12h14-17-12h14-|
|-------------------------------------17-12h14-17-12h14-------------------|
|-------------------17-12h14-17-12h14-------------------------------------|
|-17-12h15-17-12h15-------------------------------------------------------|
   T        T        T        T        T        T        T        T
  WAH_________________________________
|-------------------17-12h15-17-12//19b-19b^^--19b^^^^----|
|-17-12h15-17-12h15---------------------------------------|
|---------------------------------------------------------|
|---------------------------------------------------------|
|---------------------------------------------------------|
|---------------------------------------------------------|
   T        T        T        T
                       WAH__________________________________________________
|-16-19-18-16-19-18-16------------------------------------------------------
|----------------------18-17-15-18-17-15------------------------------------
|----------------------------------------18-16-15-18-16-15------------------
|----------------------------------------------------------17-15-14-17-1514-
|---------------------------------------------------------------------------
|---------------------------------------------------------------------------

  WAH_____________________      WAH________________________________________
|-----------------------------|---------------------------------------------
|-----------------------------|------------------------------------12-14-15-
|-----------------------------|---------------------------12-13-15----------
|-----------------------------|------------------11-12-14-------------------
|-16-14-13-16-14-13-----------|---------10-11-13----------------------------
|-------------------15/16b^^--|-9-10-12-------------------------------------

  WAH__
|-12/13-|-19-13h16-19-13h15-19-13h16-19-13h18-19-13h16-19-13h15-16-12h13p12-
|-------|-------------------------------------------------------------------
|-------|-------------------------------------------------------------------
|-------|-------------------------------------------------------------------
|-------|-------------------------------------------------------------------
|-------|-------------------------------------------------------------------
           T        T        T        T        T        T        T

|-19-13h16-19-13h15-19-13h16-19-13h18-19-13h16-19-13h15-21-15h18p15---------
|------------------------------------------------------------------21-18p15-
|---------------------------------------------------------------------------
|---------------------------------------------------------------------------
|---------------------------------------------------------------------------
|---------------------------------------------------------------------------
   T        T        T        T        T        T        T           T

|-19-13h16-19-13h15-19-13h16-19-13h18-21-15h18p15---------------------------
|-------------------------------------------------21-18p15------------------
|----------------------------------------------------------21-18p15---------
|-------------------------------------------------------------------2017p14-
|---------------------------------------------------------------------------
|---------------------------------------------------------------------------
   T        T        T        T        T           T        T        T
  A.H.      WAH______________________________________________________
|----------------------------------------------------------5//16---------|
|------------------------------------------------------------------------|
|--------------------------------------------------9-10-12------x\\\\----|
|-3b^^^^----------2h3p2-------5h6p5--------8-10-11--------------x\\\\----|
|-----------1-2-4-------4-5-7-------7-8-10-------------------------------|
|------------------------------------------------------------------------|



 RIFF 10 x UNDER SOLO x3

|-----------------------------|-----------------------------|
|-----------------------------|-----------------------------|
|-----------------------------|-----------------------------|
|-----------------------------|-----------------------------|
|-----------------------------|-----------------------------|
|-111111110000111444444333333-|-111111110000111444333666666-|
  ...........................   ...........................



 FILL 1

|-----------------------------|-----------------------------|
|-----------------------------|-----------------------------|
|-----------------------------|-----------------------------|
|-----------------------------|-----------------------------|
|-----------------------------|-----------------------------|
|-111111110000111444444333333-|-111111110000111444----------|
  ...........................   ..................x




 RIFF 2C CHORUS x2

|---------------------------------|---------------------------------|
|---------------------------------|---------------------------------|
|---------------------------------|---------------------------------|
|---------------------------------|---------------------------------|
|-2-2-----2-3-----2-4-----2-4-----|-2-2-----2-3-----2-4-----2-4-6---|
|-0-0-000-0-1-000-0-2-000-0-3-000-|-0-0-000-0-1-000-0-2-000-0-3-4---|
      ...     ...     ...     ...       ...     ...     ...



 RIFF 3A END

|-----------------------------------------------------|
|-----------------------------------------------------|
|-----------------------------------------------------|
|-----------------------------------------------------|
|-----------------------4-3-------------------4-------|
|-300200200100600300200-2-1-3002002001006003002-------|
  .....................     .................. x

2. Sex.Murder.Art

 Tuning Eb


 RIFF 1 INTRO x4

|----------------------------------|
|----------------------------------|
|----------------------------------|
|---------5--------7---6---5-------|
|-4-6-7-4---7-4-6----6---6---7-6-5-|
|----------------------------------|




 RIFF 1A INTRO x4

|----------------------------------|
|----------------------------------|
|----------------------------------|
|----------------------------------|
|---------1--------3---2---1-------|
|-0-2-3-0---3-0-2----2---2---3-2-1-|
  . . . .   . . .    .   .   . . .



 FILL 1

|-----------|
|-----------|
|-----------|
|-----------|
|-----------|
|-1b^^^^----|





 RIFF 2 VERSE x1

|------------------------------------------|
|------------------------------------------|
|------------------------------------------|
|------------------------------------------|
|-5------------------------------------4p3-|
|-33333333-4-33333333-6-33333333-4-333-----|
  ........ . ........ . ........ . ...


|------------------------------------------|
|------------------------------------------|
|------------------------------------------|
|------------------------------------------|
|-5------------------------------3----4----|
|-33333333-4-33333333-6-33333333-3----2----|
  ........ . ........ . ........


|------------------------------------------|
|------------------------------------------|
|------------------------------------------|
|------------------------------------------|
|-5------------------------------------4p3-|
|-33333333-4-33333333-6-33333333-4-333-----|
  ........ . ........ . ........ . ...


|------------------------------------------|
|------------------------------------------|
|------------------------------------------|
|--------------------------------6----5----|
|-5------------------------------6----5----|
|-33333333-4-33333333-6-33333333-----------|
  ........ . ........ . ........


|------------------------------------------|
|------------------------------------------|
|------------------------------------------|
|------------------------------------------|
|-5------------------------------------4p3-|
|-33333333-4-33333333-6-33333333-4-333-----|
  ........ . ........ . ........ . ...


|------------------------------------------|
|------------------------------------------|
|------------------------------------------|
|------------------------------------------|
|-5------------------------------3----4----|
|-33333333-4-33333333-6-33333333-3----2----|
  ........ . ........ . ........


|------------------------------------------|
|------------------------------------------|
|------------------------------------------|
|------------------------------------------|
|-5------------------------------------4p3-|
|-33333333-4-33333333-6-33333333-4-333-----|
  ........ . ........ . ........ . ...


|------------------------------------------|
|------------------------------------------|
|------------------------------------------|
|---------------------6----5---------------|
|-5-------------------6----5----2--5--4----|
|-33333333-4-33333333-----------2--5--4----|
  ........ . ........



 RIFF 3 CHORUS x1

|x2
|----------------------------------------|
|----------------------------------------|
|----------------------------------------|
|----------------------------------------|
|------------4---------------------------|
|-0-11111111-4-1111-4-1111-3-1111-2-1111-|
  . ........   .... . .... . .... . ....


|x2
|----------------------------------------|
|----------------------------------------|
|----------------------------------------|
|----------------------------------------|
|------------5---------------------------|
|-1-22222222-5-2222-5-2222-4-2222-3-2222-|
  . ........   .... . .... . .... . ....



 RIFF 4 BRIDGE x1

|----------------|----------------|----------------|----------------|
|----------------|----------------|----------------|----------------|
|----------------|----------------|----------------|----------------|
|----------------|----------------|----------------|----------------|
|----------------|----------------|----------------|----------------|
|-3333-4-3-5-3-6-|-4444-5-4-6-4-7-|-5555-6-5-7-5-8-|-6666-5555-4444-|
  .... . . . . .   .... . . . . .   .... . . . . .   .... .... ....


|----------------|----------------|----------------|----------------|
|----------------|----------------|----------------|----------------|
|----------------|----------------|----------------|----------------|
|----------------|----------------|----------------|----------------|
|----------------|----------------|----------------|-8--------7-6-3-|
|-3333-4-3-5-3-6-|-4444-5-4-6-4-7-|-5555-6-5-7-5-8-|-6--------5-4-3-|
  .... . . . . .   .... . . . . .   .... . . . . .    x



 RIFF 2 VERSE x1

 RIFF 3 CHORUS x1


 RIFF 5 BREAK x2

|----------------------------|---------------------------|
|----------------------------|---------------------------|
|----------------------------|---------------------------|
|----------------------------|---------------------------|
|-2-3-2----5-4----7-6----9\--|2-3-2----5-4----8-7---10\--|
|-0-1-0--0-3-2--0-5-4--0-7\--|0-1-0--0-3-2--0-6-5--0-8\--|
         .      .      .             .      .      .



 RIFF 5A VERSE x3

|------------------------------------|-----------------------------------|
|------------------------------------|-----------------------------------|
|------------------------------------|-----------------------------------|
|------------------------------------|-----------------------------------|
|-2-3-2----5-4----7-6----9\----------|2-3-2----5-4----8-7---10\----------|
|-0-1-0--0-3-2--0-5-4--0-7\--0-0-0-0-|0-1-0--0-3-2--0-6-5--0-8\--0-0-0-0-|
         .      .      .     . . . .         .      .      .     . . . .



 RIFF 5B END x1

|----------------------------|---------------------------|
|----------------------------|---------------------------|
|----------------------------|---------------------------|
|----------------------------|---------------------------|
|-2-3-2----5-4----7-6----9\--|2-3-2----5-4----8-7---10\--|
|-0-1-0--0-3-2--0-5-4--0-7\--|0-1-0--0-3-2--0-6-5--0-8\--|
         .      .      .             .      .      .


|----------------------------|---------------------------------|
|----------------------------|---------------------------------|
|----------------------------|---------------------------------|
|----------------------------|---------------------------------|
|-2-3-2----5-4----7-6----9\--|2-3-2----5-4----8-7---10--9\\----|
|-0-1-0--0-3-2--0-5-4--0-7\--|0-1-0--0-3-2--0-6-5--0-8--7\\----|
         .      .      .             .      .      .

3. Fictional Reality

Tuning Eb


 RIFF 1 INTRO x4

|-------------------------|-------------------------|
|-------------------------|-------------------------|
|-------------------------|-------------------------|
|-------------------------|-------------------------|
|-------0-----------2---1-|-------0-----------1---0-|
|-4-0-3---4-0-3-1-4---3---|-4-0-3---4-0-3-1-3---2---|
  . . .   . . . . .   .     . . .   . . . . .   .



 RIFF 2 VERSE x7

|-------------------------------------------------|
|-------------------------------------------------|
|-------------------------------------------------|
|-------5\4---------------------5\4---------4-----|
|-------5\4---6-----------------5\4---6-----4-----|
|-0-0-0-----0-6-0-0-0-0-0-0-0-0-----0-6-0-0---5-4-|
  . . .     .   . . . . . . . .     .   . .   . .



 FILL 1

|-------------------------------------------------|
|-------------------------------------------------|
|-------------------------------------------------|
|-------5\4---------------------5\4---------------|
|-------5\4---6-----------------5\4---6-----------|
|-0-0-0-----0-6-0-0-0-0-0-0-0-0-----0-6-0-0-2-1-0-|
  . . .     .   . . . . . . . .     .   . . . . .



 RIFF 3 BRIDGE x1

|-------------------------------------------------|
|-------------------------------------------------|
|-------------------------------------------------|
|-------------------------------------------------|
|-0-----------0-----------0-----------0-----1-----|
|---4-3-2-1-0---4-3-2-1-0---4-3-2-1-0---4-3---3-1-|
    . . . . .   . . . . .   . . . . .   . .   . .



 RIFF 4 CHORUS x1

|-------------------------------------------------|
|-------------------------------------------------|
|-------------------------------------------------|
|-------------------------------------------------|
|-------------------------------------3---2-------|
|-0-0-2-0-0-0-3-0-2-0-0-0-5-0-3-0-0-0---0---5-3-2-|
  . . . . . . . . . . . . . . . . . .   .   . . .


|-------------------------------------------------|
|-------------------------------------------------|
|-------------------------------------------------|
|-------------------------------------------------|
|-------------------------------------3-2-0-------|
|-0-0-2-0-0-0-3-0-2-0-0-0-5-0-3-0-0-0-------4-3-2-|

  . . . . . . . . . . . . . . . . . .       . . .


|-------------------------------------------------|
|-------------------------------------------------|
|-------------------------------------------------|
|-------------------------------------------------|
|-------------------------------------3---2-------|
|-0-0-2-0-0-0-3-0-2-0-0-0-5-0-3-0-0-0---0---5-3-2-|
  . . . . . . . . . . . . . . . . . .   .   . . .


|-------------------------------------------------|
|-------------------------------------------------|
|-------------------------------------------------|
|-------------------------------------------------|
|-------------------------------------1-0---------|
|-0-0-2-0-0-0-3-0-2-0-0-0-5-0-3-0-0-0-----4-3-2-1-|
  . . . . . . . . . . . . . . . . . .     . . . .



 SOLO 1 KING
   WAH___________________   A.H.   BAR      WAH    WAH___    WAH___
|------------------------------------------------------------19-22b^^^^----|
|--------------------------------------------------17-20b^^----------------|
|-/9b^^^999999^9b^-9b^-9b^--9b^^-----------/16b^^--------------------------|
|--------------------------------------------------------------------------|
|--------------------------------------------------------------------------|
|---------------------------------0\\\\------------------------------------|




 RIFF 2 x2 UNDER SOLO

 RIFF 2 VERSE x7

 FILL 1

 RIFF 3 BRIDGE x1

 RIFF 4 CHORUS x1


 RIFF 5 BREAK x1

|-------------------------------------------------|------|
|-------------------------------------------------|------|
|-------------------------------------------------|------|
|-------------------------------------------------|------|
|-3-----2-----1-----------3-----2-----1-----------|-5----|
|---2-1---2-1---2-1-3-2-1---2-1---2-1---2-1-3-2-1-|-3----|
    . .   . .   . . . . .   . .   . .   . . . . .    x



 FILL 2

|-------------------------------------------------|
|-------------------------------------------------|
|-------------------------------------------------|
|-------------------------------------------------|
|-2-----------------------------------------------|
|-0-----------------------------------------------|



 RIFF 6 INTERLUDE x1

|-------------------------------------------------|
|-------------------------------------------------|
|-------------------------------------------------|
|-------------------------------------------------|
|-------------------------------------------------|
|-0h3p0h3p0h3p0h3p0h3p0h3p0h3p0h3p0h3p0h3p0h3p0h3-|



|-------------------------------------------------|
|-------------------------------------------------|
|-------------------------------------------------|
|-------------------------------------------------|
|-------------------------------------------------|
|-1h4p1h4p1h4p1h4p1h4p1h4p1h4p1h4p1h4p1h4p1h4p1h4-|




 FILL 3

|-------------------------------------------------|
|-------------------------------------------------|
|-------------------------------------------------|
|-------------------------------------------------|
|-------------------------------------------------|
|-0h3p0h3p0h3p0h3p0h3p0h3p0h3p0h3p0h3p0h3p0h3p0h3-|



|KING
|-------------------------------------------------|
|-------------------------------------------------|
|-------------------------------------------------|
|-------------------------------------------------|
|-------------------------------------------------|
|-1h4p1h4p1h4p1h4p1h4p1h4p1h4p1h4p1h4p1h4p1h4p1h4-|
|
|
|HANNEMAN
|  BAR
|-------------------------------------------------|
|-------------------------------------------------|
|-------------------------------------------------|
|-------------------------------------------------|
|-2\\\\\\\\\\\\\\\\//\\\\\\\\//\\\\\\\\-----------|
|-0\\\\\\\\\\\\\\\\//\\\\\\\\//\\\\\\\\-----------|




 SOLO 2 HANNEMAN
              BAR  N.H. BAR                   BAR                     BAR
|-24b^^^^-------------------------------------------------------------------
|-----------------------------------23\\18/24b//\/\/\/\/\/\////\\--/23//
|------------0\\\\h4////\\\\\\\\-----------------------------------/22//
|---------------------------------------------------------------------------
|---------------------------------------------------------------------------
|---------------------------------------------------------------------------

              BAR  N.H. BAR                          BAR
|---------------------------------------------------------------------------
|-18/21\\\\--0\\\\h5//\/\/\/\/\\----//21--//23--//24b///\\\\----------------
|---------------------------------------------------------------------------
|---------------------------------------------------------------------------
|--------------------------------------------------------------------------
|---------------------------------------------------------------------------

   BAR         BAR       BAR         N.H. BAR     BAR
|---------------------------------------------------------------------------
|---------------------------------------------/24b/\/\/\/\/\/\\\\-----------
|------------------------------------5//\\\\-------------------------x\\\\--
|-0\\\\//////\\\\\\\\\\----------------------------------------------x\\\\--
|-------------0\\\\\\\\-----------------------------------------------------
|---------------------/7b\\//////\\-----------------------------------------

      BAR
|-/24b/\/\/\/\\\\--------------------|
|------------------------------------|
|------------------------------------|
|------------------------------------|
|-----------------21\\\\----x\\\\----|
|-----------------21\\\\----x\\\\----|




 RIFF 6 x8 UNDER SOLO 2


 RIFF 7 BREAK x4

|-----------------------------|
|-----------------------------|
|-----------------------------|
|----------8------------------|
|-2--------6----7--6--------3-|
|-0-------------5--4--------1-|




 RIFF 2 VERSE x7

 FILL 1

 RIFF 4 CHORUS x1


 SOLO 3 KING
  WAH & BAR/\/\/\/\/\/\/\/\/\/\/\/\/\/\/\/\/\/\/\/\/\/\/\/\/\/\/\/\/\/\/\/\
|---------------------------------------------------------------------------
|---------------------------------------------------------------------------
|-0h4p3p0h4p3p0h4p3p0h4p3p0h4p3p0h4p3p0h6p4p0h6p4p0h7p6p0h7p6p0h4p3p0h4p3p0-
|---------------------------------------------------------------------------
|---------------------------------------------------------------------------
|---------------------------------------------------------------------------
  WAH & BAR N.H. BAR            WAH    WAH    WAH   WAH    WAH  WAH  WAH
|----------------------------|-------------------------------------------|
|----------------------------|-------------------------------------------|
|-0\\\\\\\\h3\\////\\\\\\----|-/4b^^--/6b^^--/7b^^--9b^^--/10b-/12b-/13b-|
|----------------------------|-------------------------------------------|
|----------------------------|-------------------------------------------|
|----------------------------|-------------------------------------------|

     BAR
|------------------|-------------------------------------------------------|
|------------------|-------------------------------------------------------|
|-15b//\/\/\/\\----|----------------------------------------------18-19-21-|
|------------------|-------------------14-15-17----------17-18-20----------|
|------------------|----------13-14-16----------16-17-19-------------------|
|------------------|-12-13-15----------------------------------------------|

                             WAH & BAR
|----------18-19-21-22b^^^^-----------------------------------------|
|-18-20-21----------------------------------------------------------|
|----------------------------0\\\\\\\\GRADUAL DEPRESSION\\\\\\\\----|
|-------------------------------------------------------------------|
|-------------------------------------------------------------------|
|-------------------------------------------------------------------|




 RIFF 2 x3 UNDER SOLO 3

 FILL 1


 RIFF 3A END

|-------------------------------------------------|
|-------------------------------------------------|
|-------------------------------------------------|
|-------------------------------------------------|
|-0-----------0-----------0-----------0-----1---3-|
|---4-3-2-1-0---4-3-2-1-0---4-3-2-1-0---4-3---3-1-|
    . . . . .   . . . . .   . . . . .   . .   .  x

4. Dittohead

Tune down half step
Fast Rock 228

Riff A (Gtr 1)
   G#5                                                    (end Riff A)
|----------------------------------|---------------------------------|
|----------------------------------|---------------------------------|
|----------------------------------|---------------------------------|
|----------------------------------|---------------------------------|
|----------------------------------|---------------------------------|
|--4-4-4-4-4-4-5-5-3-3-3-3-3-3-5-5-|-2-2-2-2-2-2-5-5-1-1-1-1-1-1-1-1-|
P.M.................................................................

With riff A
    G#5      A5  G5          A5     F#5          N.C.
|--------------------------------|---------------------|
|--------------------------------|---------------------|
|--------------------------------|---------------------|
|--------------------------------|---------------------|
|---6--------7---5-----------7---|--4------------------|
|---4--------5---3-----------5---|--2------------19\---|
                                                  sl
Rhy. Fig 1
  N.C.                  G5       F5   N.C.                 Bb5       Ab5
|-----------------------------------|-------------------------------------|
|-----------------------------------|-------------------------------------|
|-----------------------------------|-------------------------------------|
|-----------------------------------|-------------------------------------|
|-----------------------5--------4--|----------------------8---------6----|
|-0-0-0-0-0-0-0-0--0----3---0----2--|-0-0-0-0--0-0-0-0-0---6----0----4----|
P.M..................      ...        ...................      ...
                                                         (Rhy. Fig 1 end)
  N.C.                 G5        F#5  N.C.
|-----------------------------------|-------------------------------------|
|-----------------------------------|-------------------------------------|
|-----------------------------------|-------------------------------------|
|-----------------------------------|-------------------------------------|
|----------------------5---------4--|-------------------------------------|
|-0-0-0-0-0-0-0-0-0----3----0----2--|-4-4-4-4-4-4-5-5-2--2-2--2-2-2-2-----|
P.M................        ...        .................................

w/Rhy. Fig 1, (2 three quarter times)
                  G5    F#5 NC                 Bb5   Ab5
 legal system has no spine  its corroding from in--side

 NC                        G5   F#5
 Slap your hand  you'll do no time

 N          G5  F#5   NC               Bb5    Ab5
 Reality on vacation  all across a blinded nation

 NC            G5  F#5  NC               G5    F#5
 Mentaly under sedation    anyone can be set free

 NC           Bb5    Ab5 NC                  G5  F#5
 On a technicality   ex--plain again the law to me

Riff A 2 times
Riff A 1.5 times
                               Rhy Fig 2
|--------------------------||---------------------------------|
|--------------------------||---------------------------------|
|--------------------------||---------------------------------|
|--------------------------||---------------------------------|
|--------------------------||--3---2--------------------------|
|-2--2--2--2--2---2--5--5--||--1---0---0---0---0---0---0---0--|
P.M.......................             .......................

             F5  E   F5  E   F5  (accent the F5's)
                    (Rhy Fig 2 end)
|--------------------------------|
|--------------------------------|
|--------------------------------|
|--------------------------------|
|------------3-------3-------3---|
|-0---0---0--1---0---1---0---1---|

   E5  Pick slide - steady gliss  F5 E F5 E  F5
 /-/   x/____x/____x/____x/____x/-/  /-/--/--/
                                  > PM >  PM >

w/Rhy Fig 2 (3 and & half times)
  E5             F5  E5                 F5  E5                   F5
  Unimposing policy  no enforcing ministry  gaping with judicial flaws

  E5
  Watch a fading etc...

            F5
|-------------------------||
|-------------------------||
|-------------------------||
|-------------------------||
|-----------3-----3-------||
|--0--0--0--1--0--1--3--2-||
PM.........   ...    .....

||---------------------------------|---------------------------------||
||---------------------------------|---------------------------------||
||*--------------------------------|--------------------------------*||
||*--1-----------1---2-----------0-|--1-----------1---2-------------*||
||---1-----------1---2-----------0-|--1-----------1---2--------------||
||-------3---2-----------3---2-----|------3---2-----------3---2---1--||
PM      .......         .......          .......         ............

|--------------------------------|-------------------------------|
|--------------------------------|-------------------------------|
|--------------------------------|-------------------------------|
|--2-----------2---3-----------1-|-2-----------2---3-------------|
|--2-----------2---3-----------1-|-2-----------2---3-------------|
|------4---3-----------4---3-----|-----4---3-----------4---3---2-|
PM    .......         .......         .......          ..........

|--------------------------------|
|--------------------------------|
|--------------------------------|
|--2-----------2---3-----------1-|
|--2-----------2---3-----------1-|
|------4---3-----------4---3-----|
PM    .......         .......

                             h  p  h  p
|--------------------------12-19-12-16-||
|--------------------------------------||
|--------------------------------------||
|--------------------------------------||
|--------------------------------------||
|--------------------------------------||
|
|
|--------------------------------------||
|--------------------------------------||
|--------------------------------------||
|--2-----------2---3-------0---------2-||
|--2-----------2---3-------0---------2-||
|------4---3-----------4---------------||
PM    .......         ...

(Solo 1 - Half time feel)
        Fdbk.   vib. w/bar
||-12------------(12)~~~~~~~~~~~~~(12)~~~~~~~~~~~~~~~~~~~12-14-14-15--|
||--------------------------------------------------------------------|
||--------------------------------------------------------------------|
||--------------------------------------------------------------------|
||--------------------------------------------------------------------|
||--------------------------------------------------------------------|
|
|
| Rhy Fig 3
||------------------------------|-------------------------------------|
||------------------------------|-------------------------------------|
||------------------------------|-------------------------------------|
||-3----------------------0---2-|--3-------3---5---6-------0--------2-|
||-3----------------------0---2-|--3-------3---5---6-------0--------2-|
||----0---0---0---0---0---------|------0---------------0--------------|
 PM  ...................              ...             ...


|-15-14-12---------------------------------------------------------|
|-----------15-----15--12-12-12---13-13-13--12--13---15---15---13--|
|------------------------------------------------------------------|
|------------------------------------------------------------------|
|------------------------------------------------------------------|
|------------------------------------------------------------------|
|
|
|                                                    (Rhy. Fig 3 end)
|-------------------------------------------------------------------|
|-------------------------------------------------------------------|
|-------------------------------------------------------------------|
|-3------------------------------------------------------0-------2--|
|-3------------------------------------------------------0-------2--|
|-------0----0--------0----------0-----------0----------------------|

                             bnd full
|---------------------------------/---------------------------|
|-12---12------------------------/----------------------------|
|-----------14------12---12---14/-----------------------------|
|-------------------------------------------------------------|
|-------------------------------------------------------------|
|-------------------------------------------------------------|
|
|
| Rhy Fig 3A                                        End Fig 3A
|-------------------------------------------------------------|
|-------------------------------------------------------------|
|-------------------------------------------------------------|
|-3------------------3------------------------------0------2--|
|-3------------------3------------------------------0------2--|
|------------0----------------5-------4------3----------------|
PM          ...             ...................


  w/Rhy Fig 3                        AH          sl
   ~~~~~~~~~~ ~~~~~~~~~  ~~~~~~~~~~~ ~~~~~~~~~~
|----------------------|------------------------------|
|----------------------|------------------------------|
|-14----------14-------|-14----------14------(14)\----|
|----------------------|---------------------------\--|
|----------------------|------------------------------|
|----------------------|------------------------------|

       h   p                p           p     w/Rhy Fig 3B          sl
|--------------------------------------------|---------------------------|
|--------------------------------------------|---------------------------|
|-11-11--12-11--12--14-14-12-11--------------|---------------------------|
|--------------------------------14--12--11--|-12-14--11-11--------------|
|--------------------------------------------|--------------14-14-12\----|
|--------------------------------------------|------------------------\--|

*******************************
*  Rhy Fig 3B (Gtrs 1 & 2)    *
* |-------------------------| *
* |-------------------------| *
* |-------------------------| *
* |-3-----------------0--2--| *
* |-3-----2-----------0--2--| *
* |----0-----4--3--2--------| *
* PM  ...............         *
*******************************
                                                                       trem bar

                                                                        *1/2
  w/Rhy Fig 3                (bnd 1/2)                                  /----\
|--------------------------------/-|-----------------------------------|----
|-------------------------------/--|-----------------------------------|----
|------------------------------/---|-----------------------------------|----
|----------------------------7/----|------------------------7--9--7--9------
|-2/7--7--8-8-7--8-10-7--10--------|-(7)--7--8--9--7--8--9-------------|----
|----------------------------------|-----------------------------------|----
   sl             h

* = pull bar up

 w/Rhy Fig 3A

  AH
  trem bar
   \1/ 1/2 (half)    sl   sl
|---------------------------------|
|-7----------------(7)\--------/--|
|--------------------------3-/----|
|---------------------------------|
|---------------------------------|
|---------------------------------|
AH=pitch:c#

  w/Rhy. Fig 3                                   h
|----------------------------------------------------------|
|-11-11-11-12-12-11-11-12-12-12-14-12-12-13-15-12-13-12-13-|
|----------------------------------------------------------|
|----------------------------------------------------------|
|----------------------------------------------------------|
|----------------------------------------------------------|
    p                          p
|----------------------------------------------------------|
|-13-12-13-13-14-14-16-16-14-14-13-14-14-15-15-17-17-15----|
|----------------------------------------------------------|
|-------------------------------------------------------14-|
|----------------------------------------------------------|
|----------------------------------------------------------|

|----------------------------------------------------------|
|----------------------------------------------------------|
|----------------------------------------------------------|
|-15-17-15-15-16-18-15-16-----------17-18-20-17-18-20-17---|
|----------------------------------------------------------|
|----------------------------------------------------------|

w/Rhy. Fig 3C                                           F5
              h    h           h    h          sl
|----------------------------------------------------------||
|----------------------------------------------------------||
|-------19-17---18---20-----17---18---20-----18/19--22--19-||
|-18-20----------------------------------------------------||
|----------------------------------------------------------||
|----------------------------------------------------------||
    h

******************************
*  Rhy Fig 3C (Gtrs 1 & 2)   *
* |------------------------| *
* |------------------------| *
* |------------------------| *
* |-3-----------------1----| *
* |-3-----2-----------1--3-| *
* |----0-----4--3--2-----1-| *
*     PM.............        *
******************************

 w/Rhy Fig  2 (4 times)

       E5       sl
   8va----------------|   F5                 E5
|--23-------------------|------------------|------------------|
|--23-----(23)\---------|------------------|------------------|
|--------------\--------|------------------|------------------|
|---------------\-------|------------------|------------------|
|----------------\------|------------------|------------------|
|-----------------------|------------------|------------------|

          F5     E5                    F5
 placed in fame    Legislature sets the stage

           (end half time feel)
 E5                          F5
 Social slaves caught in my rage

 Slower 138
|------------------------------------|------------------------------------|
|------------------------------------|------------------------------------|
|----3--------4--------5--------6----|----4--------5--------6--------7----|
|----5--1-----6--2-----7--3-----8--4-|----5--2-----6--3-----7--4-----8--5-|
|-1-----3--2-----4--3-----5--4-----6-|-2-----3--3-----4--4-----5--5-----6-|
|-3--------4--------5--------6-------|-3--------4--------5--------6-------|

|--------------------------------------|------------------|
|--------------------------------------|------------------|
|----8--------9--------10--------11----|----8--------9----|
|----8--6-----9--7-----10--8-----11--9-|----8--6-----9--7-|
|-5-----6--6-----7--7------8--8------9-|-5-----6--6-----7-|
|-5--------6--------7---------8--------|-5--------6-------|

|---------------------------|
|---------------------------|
|----10--------11-----------|
|----10--8-----11--10--9\\7-|
|-7------8--8------10--9--8-|
|-7---------8---------------|
                        sl

|------------------|-----------------------|-----------------------------|
|------------------|-----------------------|-----------------------------|
|----10-------11---|----12--------13-------|-10-------11-------12--------|
|----8--8-----9--9-|----10--10----11--11---|-8--8-----9--9-----10--10----|
|-7-----6--8-----7-|-9------8--10-----9--7-|----6--8-----7--9------8--10-|
|-5--------6-------|-7---------8---------5-|-------6--------7---------8--|

                 (cont in slashes)
|--------------------------------||
|--------------------------------||
|-13-----------------------------||
|-11--12--11--10-----------------||
|-----10--9---8---11--10\\-8--8--||
|-----------------9---8--\\6--6--||
                        sl


Guitar solo 2
Faster 224 (double time feel)

  E Rhy Fig 4
  /===/==/==/   /===/==/==/   /===/==/==/  /===/==/==/
 PM...................................................
  t   p  t  p   t   p  t  p   t  p  t  p   t   p  t  p
|-------------------------------------------------------|
|-------------------------------------------------------|
|-16--12-16-12--16--12-16-12--16-12-16-12--16--12-16-12-|
|-------------------------------------------------------|
|-------------------------------------------------------|
|-------------------------------------------------------|

  /===/==/==/   /===/==/==/   /===/==/==/   /===/==/==/
  PM...................................................
  t   p  t  p   t   p  t  p   t  p  t  p   t   p  t  p
|-------------------------------------------------------|
|-------------------------------------------------------|
|-16--13-16-13--16--13-16-13--16-13-16-13--16--13-16-13-|
|-------------------------------------------------------|
|-------------------------------------------------------|
|-------------------------------------------------------|

  G5     E                    G#5   E
  /------/===/  /===/---/     /-----/===/  /===/---/
        P.M..............           P.M.........
  t   p  t  p   t   p  t  p   t  p  t  p   t   p  t  p
|-------------------------------------------------------|
|-------------------------------------------------------|
|-16--14-16-14--16--14-16-14--16-14-16-14--16--14-16-14-|
|-------------------------------------------------------|
|-------------------------------------------------------|
|-------------------------------------------------------|

  G5     E                    G5   F#5     F5
  /------/===/  /===/---/     /-----/      / (end Rhy fig 4)
        P.M..............
  t   p  t  p   t   p  t  p   t  p  t  p   t   p  t  p
|-------------------------------------------------------|
|-------------------------------------------------------|
|-19--14-19-14--19--14-19-14--19-14-19-14--19--14-19-14-|
|-------------------------------------------------------|
|-------------------------------------------------------|
|-------------------------------------------------------|

 w/Rhy Fig 4 (2 3/4 times)
  t  p   t  p   t  p   t  p   t  p   t  p   t  p   t  p
|--------------------------------------------------------|
|-17-12--16-12--17-12--16-12--17-12--16-12--17-12--17-13-|
|--------------------------------------------------------|
|--------------------------------------------------------|
|--------------------------------------------------------|
|--------------------------------------------------------|

  t  p   t  p   t  p   t  p   t  p   t  p   t  p   t  p
|--------------------------------------------------------|
|-17-13--17-13--17-13--17-13--17-13--17-13--17-13--17-13-|
|--------------------------------------------------------|
|--------------------------------------------------------|
|--------------------------------------------------------|
|--------------------------------------------------------|

  G5     E                    G#5    E
  t  p   t  p   t  p   t  p   t  p   t  p   t  p   t  p
|--------------------------------------------------------|
|-18-13--18-13--18-13--18-13--18-13--18-13--18-13--18-13-|
|--------------------------------------------------------|
|--------------------------------------------------------|
|--------------------------------------------------------|
|--------------------------------------------------------|

  G5     E                    G5    F#5     F5
  t  p   t  p   t  p   t  p   t  p   t  p   t  p   t  p
|--------------------------------------------------------|
|-20-15--19-15--20-15--20-15--20-15--20-15--20-15--20-15-|
|--------------------------------------------------------|
|--------------------------------------------------------|
|--------------------------------------------------------|
|--------------------------------------------------------|

  E                                            G5   E        G#5 E
                                               trem bar 1/2      3 1/2
                                                        ------------
  bnd full  bnd full bnd full bnd full                    p sl
|----/---------/--------/--|-----/---------21--|-(21)-------------------|
|-20/-------20/------20/---|--20/~~~~~~~~~~20--|-(20)-(20)-17/--0-------|
|--------------------------|-------------------|----------------0-------|
|--------------------------|-------------------|------------------------|
|--------------------------|-------------------|------------------------|
|--------------------------|-------------------|------------------------|

  G5   E    G5  F#5  F5   E
  bnd full bnd full                         p
|-----------------------|------------------------------|
|---/--------/----------|------------------------------|
|-7/-------7/ ~~~~~~~~~-|-4-4-5-4-5--4-4-7-5-4-5-4-4-7-|
|-----------------------|------------------------------|
|-----------------------|------------------------------|
|-----------------------|------------------------------|

                            G5   E            G#5 E
                                               6
                        trem bar ----------------- bnd 1/2
|-------------------------|------------------------19-/-----|
|-------------------------|------------------------22/------|
|-------------------------|---------------------------------|
|-5-4-5-4-4---------------|---------------------------------|
|-----------7-5-3-7-------|---------------------------------|
|-------------------0---0-|-0-------------------------------|

  G5                F#5  F5
  /               /--/   /         w/Rhy Fig 4 (3 3/4 times)
  bnd 1/2 bnd 1/2 bnd 1/2          bnd 1 1/2                       sl
|-19-/----19-/----19-/~~~~~~~~~~||-----/---------------------|--------------
|-22/-----22/-----22/-----------||----/----------------------|--------------
|-------------------------------||-21/----------(21)~~~~~~~~~|~~~(21)\------
|-------------------------------||---------------------------|--------\-----
|-------------------------------||---------------------------|--------------
|-------------------------------||---------------------------|--------------



 G5  E  G#5  E  G5  E  G5  F#5  F5       E
                                    The world around you drifting to a

                           G5  E  G#5  E  G5  E  G5  F#5  F5  E
 Continental tomb you see                                     Violence is my


                                    G5  E  G#5  E  G5  E  G5  F#5  F5
passion, I will never be contained

      E                                        G5 E    G#5  E
We're living with aggression and it's ever lasting  reign

G5 E              G5 F#5 F5
/--/==/  /==/--/  /--/--/
  P.M..........   >  >  >


 THATS IT!!!

5. Divine Intervention

Tuning Eb


 RIFF 1 INTRO x2

|-------------------------------------------------|
|-------------------------------------------------|
|-------------------------------------------------|
|--9-----------9--------9-----9--9--9--9--9--9----|
|-10----------10-------10----10-10-10-10-10--9----|
|-----0--0--0-----0--0--------------------------0-|
      .  .  .     .  .                          .


|-------------------------------------------------|
|-------------------------------------------------|
|-------------------------------------------------|
|-12----------12-------12----12-12-12-12-12-12----|
|-13----------13-------13----13-13-13-13-13-12----|
|-----0--0--0-----0--0--------------------------0-|
      .  .  .     .  .                          .



 RIFF 1A INTRO x2

|-------------------------------------------------|
|-------------------------------------------------|
|-------------------------------------------------|
|--9-----------9-----9--9-----9--9--9--9--9--9----|
|-10----------10----10-10----10-10-10-10-10--9----|
|-----0--0--0-----0-----------------------------0-|
      .  .  .     .                             .


|-------------------------------------------------|
|-------------------------------------------------|
|-------------------------------------------------|
|-12----------12----12-12----12-12-12-12-12-12----|
|-13----------13----13-13----13-13-13-13-13-12----|
|-----0--0--0-----0-----------------------------0-|
      .  .  .     .                             .



 RIFF 2 MAIN x4

|--------------------------------------------------------------------------|
|--------------------------------------------------------------------------|
|--------------------------------------------------------------------------|
|-------------------------------------------------------9-------9---9---9--|
|------------------------------------------------------10------10--10---9--|
|-0--0--0--0--0--0--0--0--0--0--0--0--0--0--0--0--0--0---------------------|
  .  .  .  .  .  .  .  .  .  .  .  .  .  .  .  .  .  .


|--------------------------------------------------------------------------|
|--------------------------------------------------------------------------|
|--------------------------------------------------------------------------|
|------------------------------------------------------12------12--12--12--|
|------------------------------------------------------13------13--13--12--|
|-0--0--0--0--0--0--0--0--0--0--0--0--0--0--0--0--0--0---------------------|
  .  .  .  .  .  .  .  .  .  .  .  .  .  .  .  .  .  .



 RIFF 3 BREAK x1

|KING
|--------------------------------------|------------------------------------
|--------------------------------------|------------------------------------
|--------------------------9-----------|--------------------------9---------
|---------9b^^^^-------------10b^^^^---|---------9b^^^^-------------10-9b^^-
|------7----------------7--------------|------7----------------7------------
|-0-------------0--0-------------------|-0-------------0--0-----------------
|
|
|HANNEMAN
|--------------------------------------|------------------------------------
|--------------------------------------|------------------------------------
|--------------------------------------|------------------------------------
|-9\\\\--------------------------------|------------------------------------
|-7\\\\--------------------------------|------------------------------------
|--------------------------------------|------------------------------------



|KING
|--------------------------------------|------------------------------------
|--------------------------------------|------------------------------------
|--------------------------9-----------|-----------------------------9------
|---------9b^^^^-------------10b^^^^^--|---------9b^^^^-----------8----10-9-
|------7----------------7--------------|------7----------------7------------
|-0-------------0--0-------------------|-0-------------0--0-----------------
|
|
|HANNEMAN
|--------------------------------------|------------------------------------
|--------------------------------------|-----------------------------------
|--------------------------------------|------------------------------------
|--------------------------------------|------------------------------------
|-2------------------------------------|-2----------------------------------
|-0------------------------------------|-0----------------------------------



|KING
|--------------------------------------|------------------------------------
|--------------------------------------|------------------------------------
|--------------------------9-----------|--------------------------9---------
|---------9b^^^^-------------10b^^^^---|---------9b^^^^-------------10-9b^^-
|------7----------------7--------------|------7----------------7------------
|-0-------------0--0-------------------|-0-------------0--0-----------------
|
|
|HANNEMAN
|--------------------------------------|------------------------------------
|--------------------------------------|------------------------------------
|--------------------------------------|------------------------------------
|--------------------------------------|------------------------------------
|-2----2--2-----2--2----2--2--2--------|-2----2--2-----2--2----2--2--2--2---
|-0----0--0-----0--0----0--0--0--------|-0----0--0-----0--0----0--0--0--0---
  .x   .  .x    .  .x   .  .  .x         .x   .  .x    .  .x   .  .  .  .x


|KING
|--------------------------------------|------------------------------------
|--------------------------------------|------------------------------------
|--------------------------9-----------|-----------------------------9------
|---------9b^^^^-------------10b^^^^^--|---------9b^^^^-----------8----10-9-
|------7----------------7--------------|------7----------------7------------
|-0-------------0--0-------------------|-0-------------0--0-----------------
|
|
|HANNEMAN
|--------------------------------------|------------------------------------
|--------------------------------------|------------------------------------
|--------------------------------------|------------------------------------
|--------------------------------------|------------------------------------
|-2----2--2-----2--2----2--2--2--------|-2----2--2-----2--2----2--2--2--2---
|-0----0--0-----0--0----0--0--0--------|-0----0--0-----0--0----0--0--0--0---
  .x   .  .x    .  .x   .  .  .x         .x   .  .x    .  .x   .  .  .



 RIFF 4 CLEAN BREAK x1

|KING
|------------------------|
|------------------------|
|------------------------|
|-------5--------8---7---|
|----7-------6-----------|
|-0----------------------|
|
|
|HANNEMAN
|-------------------------|
|-------------------------|
|-------------------------|
|-9\\\\-------------------|
|-7\\\\-------------------|
|-------------------------|
|
|
|3RD GUITAR
|-------------------------|
|-------------------------|
|-------7-------10---9----|
|----9-------8------------|
|-------------------------|
|-0-----------------------|



|KING x2
|------------------------|
|------------------------|
|------------------------|
|-------5--------8---7---|
|----7-------6-----------|
|-0----------------------|
|
|
|HANNEMAN x2
|-------------------------|
|-------------------------|
|-------------------------|
|-------------------------|
|-------------------------|
|-------------------------|
|
|
|3RD GUITAR x2
|-------------------------|
|-------------------------|
|-------7-------10---9----|
|----9-------8------------|
|-------------------------|
|-0-----------------------|



|KING
|------------------------|
|------------------------|
|------------------------|
|-------5--------8---7---|
|----7-------6-----------|
|-0----------------------|
|
|
|HANNEMAN
|-------------------------|
|-------------------------|
|-------------------------|
|-------------------------|
|-2-----------------------|
|-0-FADE GRADUALLY IN-----|
|
|
|3RD GUITAR
|-------------------------|
|-------------------------|
|-------7-------10---9----|
|----9-------8------------|
|-------------------------|
|-0-----------------------|



 RIFF 2A VERSE x4

|-----------------------------------------------------|
|-----------------------------------------------------|
|-----------------------------------------------------|
|-----------------------------------------------------|
|--------------------------------------2-----2--2--2--|
|-0-0-0-0-0-0-0-0-0-0-0-0-0-0-0-0-0-0--3-----3--3--2--|
  . . . . . . . . . . . . . . . . . .


|-----------------------------------------------------|
|-----------------------------------------------------|
|-----------------------------------------------------|
|-----------------------------------------------------|
|--------------------------------------5-----5--5--5--|
|-0-0-0-0-0-0-0-0-0-0-0-0-0-0-0-0-0-0--6-----6--6--5--|
  . . . . . . . . . . . . . . . . . .



 SOLO 1 KING

|-----------------------------------------------------------------------|
|-----------------------------------------------------------------------|
|---------------------------------------------------10-13-11-10---------|
|----------------------------9------9-10-12-9-10-12-------------12-10-9-|
|--------------8-9----8-9-11---9-11-------------------------------------|
|-7b^^--7-8-10-----10---------------------------------------------------|


|-----------------------------------------------------|--------------------|
|-----------------------------------------------------|-121212101010121212-|
|-11-10------------10---------------------------------|--------------------|
|-------12-10-9-------12-10-9---------------/10b^^^^--|--------------------|
|---------------11------------11-9--8b^^^^------------|--------------------|
|-----------------------------------------------------|--------------------|

                                                             N.H. BAR
|--------------------------------------------------------------------------|
|-131313121212131313-151515131313151515-161616-171717-191919---------------|
|------------------------------------------------------------12\\\\\\\\----|
|------------------------------------------------------------12\\\\\\\\----|
|--------------------------------------------------------------------------|
|--------------------------------------------------------------------------|




 RIFF 5 x1 UNDER SOLO 1

|-------------------------------------|-------------------------------------
|-------------------------------------|-------------------------------------
|-------------------------------------|-------------------------------------
|-------------------------------------|-------------------------------------
|-------------2-----------------------|-------------------------6---5---4---
|-1-1-1-1-1-1-2---1-1-1-1-1-1-1-2-4-5-|-1-1-1-1-1-1-1-1-1-2-4-5-4---3---2---|
  . . . . . .     . . . . . . . . . .   . . . . . . . . . . . .


|-------------------------------------|-------------------------------------
|-------------------------------------|-------------------------------------
|-------------------------------------|-------------------------------------
|-------------------------------------|-------------------------------------
|-------------2-----------------------|-------------------------2---1---0---
|-1-1-1-1-1-1-2---1-1-1-1-1-1-1-2-4-5-|-1-1-1-1-1-1-1-1-1-2-4-5-2---1---0---
  . . . . . .     . . . . . . . . . .   . . . . . . . . . . . .



 RIFF 6 CHORUS x1

|-------------------------------------------------------------|
|-------------------------------------------------------------|
|-------------------------------------------------------------|
|-------------------------------------------------------------|
|-6\-------------6\-------------7\-------------8\-------9-8-7-|
|-4\222222222222-4\222222222222-5\333333333333-6\444444-7-6-5-|
    ............   ............   ............   ......


|-------------------------------------------------------------|
|-------------------------------------------------------------|
|-------------------------------------------------------------|
|-------------------------------------------------------------|
|-6\-------------6\-------------7\-------------8\-------5-4-3-|
|-4\222222222222-4\222222222222-5\333333333333-6\444444-3-2-1-|
    ............   ............   ............   ......



 RIFF 2A VERSE x4


 FILL 1

|KING
|-----------------------------------------------|
|-----------------------------------------------|
|-----------------------------------------------|
|-----------------------------------------------|
|-2---------------------------------7-----------|
|-0---0-0-0-0-0-0-0-0-0-0-0-0-0-0-0-8-----7b^^--|
|     . . . . . . . . . . . . . . .
|
|HANNEMAN
|-----------------------------------------------------|
|-----------------------------------------------------|
|-----------------------------------------------------|
|-----------------------------------------------------|
|-2-----------------7-7-------------7-----7-----2-----|
|-0-----------------7-6-------------8-----7-----3-----|
   x                    x



 SOLO 2 KING

|----------------------------------------------|-9-10-12-10-9---------------
|----------------------------12b^^--12fb^^r^^--|--------------12-11-9-------
|-------------------12-13-15-------------------|----------------------12109-
|----------11-12-14----------------------------|----------------------------
|-10-11-13-------------------------------------|----------------------------
|----------------------------------------------|----------------------------

                                            A.H.                        A.H.
|---------------------------------------------------------------------------
|---------------------------------------------------------------------------
|-------------------------------------------9b^^------------------9----9b^^-
|-11-9-8--------------------------------/10-------------------------9b------
|--------10-8-7-----------8-7-----------------------------7b^^^^------------
|---------------9-7-6-7-9-----9-7b^^^^--------------6-7-9-------------------


|----------------------------------12---------------------------------12b^^-
|-------------------------12b^^-------12fb^r-12fb^r-12b^^^^----12-14-15-----
|---------9b^^----9-10-12---------------------------------------------------
|-9-11-12-------------------------------------------------------------------
|---------------------------------------------------------------------------
|---------------------------------------------------------------------------

  WAH____________________________________________________________________
|-18-19-21-19-18----------18-19-21-19-18----------18-19-21-19-18----------|
|----------------21-20-21----------------21-20-21----------------21-20-18-|
|-------------------------------------------------------------------------|
|-------------------------------------------------------------------------|
|-------------------------------------------------------------------------|
|-------------------------------------------------------------------------|

  WAH________________________________
|------------------------------------------|
|------------------------------------------|
|-21-19-18---------------------------------|
|----------20-18-17------------------------|
|-------------------19-17-16---------------|
|----------------------------18-16-15\\----|




 RIFF 7 x4 UNDER SOLO 2

|-----------------------------------------------------|
|-----------------------------------------------------|
|-----------------------------------------------------|
|-------------------9-8-------------------------------|
|-2-----------------7-7-------------7-----7-----2-----|
|-0---0-0-0-0-0-0-0-----0-0-0-0-0-0-8-----7-----3-----|
      . . . . . . .     . . . . . .



 FILL 2

|-------|
|-------|
|-------|
|-------|
|-2-----|
|-2-----|




 SOLO 3 HANNEMAN
  WAH__________________________________________________________________
|-12-13-12-13-12-13-15-13-12--------------------------------------------|
|----------------------------15-14-12--12-14-15-14-12-------------------|
|-----------------------------------------------------15-13-12-15-13-12-|
|-----------------------------------------------------------------------|
|-----------------------------------------------------------------------|
|-----------------------------------------------------------------------|

  WAH__________________________________________________________________
|-----------------------------------------------------------------------|
|-----------------------------------------------------------------------|
|----------12-13-12-13-12-13-15-13-12-----------------------------------|
|-14-12-11----------------------------14-12-11--11-12-14-12-11----------|
|--------------------------------------------------------------13-11-10-|
|-----------------------------------------------------------------------|

  WAH________________________________________________________________________
|---------------------------------------------------------------------------
|---------------------------------------------------------------------------
|---------------------------------------------------------------------------
|---------------------------------------------8-9-11-8-9-11-12-13-14-121314-
|-13-11-10----------------------7-8-10-7-8-10-------------------------------
|----------12-10-9--6-7-9-6-7-9---------------------------------------------

  WAH____________________________________    WAH_    WAH______
|-----------------------------------------------------------------------|
|--------------------------------------------/12b^^--//11b/12b\\\\\\\\--|
|-------------------------------------14b^^-----------------------------|
|-12-13-14-12-13-14-12-13-14-12-13-14-----------------------------------|
|-----------------------------------------------------------------------|
|-----------------------------------------------------------------------|

  WAH        WAH____________________________ WAH_      WAH_______________
|----------------------------------------------------|--------------------|
|----------------------------------------------------|--------------------|
|-/3b^^^^----3-4-6-4-3-------------------------------|--------------------|
|----------------------5-3-2-5-3-2-------------------|--------------------|
|----------------------------------4-2-1-2fb^^r^b^^--|-------------7-8-10-|
|----------------------------------------------------|-6-7-9-6-7-9--------|
                                                       . . . . . . . . ..
  WAH_____________________________________________________________________
|--------------------------------------------------------------------------|
|--------------------------------------------------------------------------|
|----------------------9-10-12-9-10-12-10-12-13-10-12-13-12-13-15-12-13-15-|
|--------8-9-11-8-9-11-----------------------------------------------------|
|-7-8-10-------------------------------------------------------------------|
|--------------------------------------------------------------------------|
  . . ..
  WAH_______________________________________________________________________
|---------------------------------------------------------------------------
|-------------------------------------15-17-18-17-15------------------------
|-13-15-16-13-15-16-15-16-18-15-16-18----------------18-16-15-16-18-15-1618-
|---------------------------------------------------------------------------
|---------------------------------------------------------------------------
|---------------------------------------------------------------------------

  WAH_____________________                WAH & BAR          WAH & BAR DEEP
|-------------------15------------------------------------------------------
|-15-17-18-15-17-18----17b^^^^^^^^-------/23b//\\\\\\-----------------------
|---------------------------------------------------------------------------
|---------------------------------------------------------------------------
|---------------------------------------------------------------------------
|------------------------------------------------------------0\\\\\\\\\\\\--

  N.H. BAR
|-----------------------------------------|
|-----------------------------------------|
|-22////\\\\GRADUAL DEPRESSION\\\\--------|
|-----------------------------------------|
|-----------------------------------------|
|-----------------------------------------|



 RIFF 7A x4 UNDER SOLO 3

|-----------------------------------------------------|
|-----------------------------------------------------|
|-----------------------------------------------------|
|-----------------------------------------------------|
|-2-----------------7-7-------------7-----7-----2-----|
|-0---0-0-0-0-0-0-0-7-6-0-0-0-0-0-0-8-----7-----3-----|
      . . . . . . .     . . . . . .



 FILL 2 UNDER SOLO 3


 RIFF 4A x UNDER SOLO 3


|KING
|------------------------|
|------------------------|
|------------------------|
|-------5--------8---7---|
|----7-------6-----------|
|-0----------------------|
|
|
|3RD GUITAR
|-------------------------|
|-------------------------|
|-------7-------10---9----|
|----9-------8------------|
|-------------------------|
|-0-----------------------|
|
|
|4TH GUITAR
|-------------------------|
|-------------------------|
|-------------------------|
|-------------------------|
|-2-----------------------|
|-0-----------------------|



|KING x2
|------------------------|
|------------------------|
|------------------------|
|-------5--------8---7---|
|----7-------6-----------|
|-0----------------------|
|
|
|3RD GUITAR x2
|-------------------------|
|-------------------------|
|-------7-------10---9----|
|----9-------8------------|
|-------------------------|
|-0-----------------------|
|
|
|4TH GUITAR x2
|-------------------------|
|-------------------------|
|-------------------------|
|-------------------------|
|-(2)---------------------|
|-(0)---------------------|



|KING
|------------------------|
|------------------------|
|------------------------|
|-------5--------8---7---|
|----7-------6-----------|
|-0----------------------|
|
|
|3RD GUITAR
|-------------------------|
|-------------------------|
|-------7-------10---9----|
|----9-------8------------|
|-------------------------|
|-0-----------------------|




 RIFF 4B INTERLUDE x1

|KING x3
|------------------------|
|------------------------|
|------------------------|
|-------5--------8---7---|
|----7-------6-----------|
|-0----------------------|
|
|
|3RD GUITAR x3
|-------------------------|
|-------------------------|
|-------7-------10---9----|
|----9-------8------------|
|-------------------------|
|-0-----------------------|



|KING
|------------------------|
|------------------------|
|------------------------|
|-------5--------8---7---|
|----7-------6-----------|
|-0----------------------|
|
|
|HANNEMAN
|-------------------------|
|-------------------------|
|-------------------------|
|-------------------------|
|-2-----------------------|
|-0-FADE GRADUALLY IN-----|
|
|
|3RD GUITAR
|-------------------------|
|-------------------------|
|-------7-------10---9----|
|----9-------8------------|
|-------------------------|
|-0-----------------------|




 RIFF 2A VERSE x4


 SOLO 4 HANNEMAN

|-23fb^^^r--23fb^^r--23fb^^r--23232323-191919-202020-222222-232323-222222-|
|-------------------------------------------------------------------------|
|-------------------------------------------------------------------------|
|-------------------------------------------------------------------------|
|-------------------------------------------------------------------------|
|-------------------------------------------------------------------------|


|-202020-191919----------------------------------------------------------|
|---------------22-21-19-22-21-19----------------------------------------|
|---------------------------------22-20-19-20b^^--20b^^--20b^^--22b^^\\--|
|------------------------------------------------------------------------|
|------------------------------------------------------------------------|
|------------------------------------------------------------------------|


|---------------------------------------|-----------------------------------
|---------------------------------------|-----------------------------------
|-/20b^^--22b^^--22b^^--22b^^--23b^^\\--|-----------------------------------
|---------------------------------------|-------------------12-13-15-121315-
|---------------------------------------|-11-12-14-11-12-14-----------------
|---------------------------------------|-----------------------------------

                                            | OVER BRIDGE LYRICS A.H.
|-------------------------------------------|-----------------------------|
|-------------------13-15-16-15-13----------|-----------------------------|
|-13-14-16-13-14-16----------------16-14-13-|-14b^^^^^^^^^^^^----14b^^^^--|
|-------------------------------------------|-----------------------------|
|-------------------------------------------|-----------------------------|
|-------------------------------------------|-----------------------------|

  A.H. A.H. A.H. A.H. A.H. A.H. A.H.           A.H.      A.H.      A.H.
|---------------------------------------------------------------------------
|---------------------------------------------------------------------------
|-14b--14b--14b--14b--14b--14b--14b^^^^^^^^----14fb^^^r--14fb^^^r--14fb^^^r-
|---------------------------------------------------------------------------
|---------------------------------------------------------------------------
|---------------------------------------------------------------------------




 RIFF 5 x1 UNDER SOLO 4

 RIFF 6 CHORUS x1


 SOLO 5 HANNEMAN

|-------------|-----------------------------------------------------------|
|-------------|-----------------------------------------------------------|
|-------------|-----------------------------------------------------------|
|-------------|---------------------------------------------7-8-10-7-8-10-|
|-15\\\\\\----|-3-4-6-4-6-7-4-6-7-6-7-9-6-7-9-7-9-10-7-9-10---------------|
|-15\\\\\\----|-----------------------------------------------------------|
                . . . . . . . . . . . . . . . . . .. . . ..

|---------------------------------------------------------------|
|-----------------------------------------------------/16b^^----|
|--------------------------11-12-14-12-11-------------/15b^^----|
|-8-10-11-8-10-11-10-11-13----------------13-11-10-11-----------|
|---------------------------------------------------------------|
|---------------------------------------------------------------|


|-11-12-14-12-14-15-12-14-15-14-15-17-14-15-17-15-17-18-15-17-18-17-18-20-|
|-------------------------------------------------------------------------|
|-------------------------------------------------------------------------|
|-------------------------------------------------------------------------|
|-------------------------------------------------------------------------|
|-------------------------------------------------------------------------|


|-17-18-20-18-20fb^^r--20fb^^r--20b-20b-20b-20b-20b-20b^^--24fb^^^^r-----|
|------------------------------------------------------------------------|
|------------------------------------------------------------------------|
|------------------------------------------------------------------------|
|------------------------------------------------------------------------|
|------------------------------------------------------------------------|


|-24b^^^^--24b^^^^--24b^^^^--24fb^^^^^^r--------------------------------|
|-----------------------------------------23fb^^^^^^^^^^^^r----23b^^^^--|
|-----------------------------------------------------------------------|
|-----------------------------------------------------------------------|
|-----------------------------------------------------------------------|
|-----------------------------------------------------------------------|


|------------------------------------------------------|-12-15-13-12-151312-
|-23b^^^^--23fb^^^^^^r---------------------------------|--------------------
|-------------------------21b^^^^^^^^------------------|--------------------
|------------------------------------------------------|--------------------
|------------------------------------------------------|--------------------
|----------------------------------------21\\\\\\\\----|--------------------


|-------------------------------------------------------------------------|
|-15-14-12-15-14-12-------------------------------------------------------|
|-------------------15-13-12-15-13-12-------------------------------------|
|-------------------------------------14-12-11-14-12-11-------------------|
|-------------------------------------------------------13-11-10-13-11-10-|
|-------------------------------------------------------------------------|


|-------------------|
|-------------------|
|-------------------|
|-------------------|
|-------------------|
|-12\\\\\\\\\\\1----|




 RIFF 6A x1 UNDER SOLO 5

|-------------------------------------------------------------|
|-------------------------------------------------------------|
|-------------------------------------------------------------|
|-------------------------------------------------------------|
|-6\------4------6\------4------7\------5------8\-------9-8-7-|
|-4\22222-222222-4\22222-222222-5\33333-333333-6\444444-7-6-5-|
    .....  .....   .....  .....   .....  .....   ......


|-------------------------------------------------------------|
|-------------------------------------------------------------|
|-------------------------------------------------------------|
|-------------------------------------------------------------|
|-6\------4------6\------4------7\------5------8\-------5-4-3-|
|-4\22222-222222-4\22222-222222-5\33333-333333-6\444444-3-2-1-|
    .....  .....   .....  .....   .....  .....   ......



 RIFF 4C x1 UNDER SOLO

|KING x3
|------------------------|
|------------------------|
|------------------------|
|-------5--------8---7---|
|----7-------6-----------|
|-0----------------------|
|
|
|3RD GUITAR x3
|-------------------------|
|-------------------------|
|-------7-------10---9----|
|----9-------8------------|
|-------------------------|
|-0-----------------------|


|KING
|----------------------------|
|----------------------------|
|----------------------------|
|-------5----------8-----7---|
|----7-------6---------------|
|-0--------------------------|
|
|
|3RD GUITAR
|-----------------------------|
|-----------------------------|
|-------7---------10-----9----|
|----9-------8----------------|
|-----------------------------|
|-0---------------------------|
|
|
|4TH GUITAR
|-----------------------------|
|-----------------------------|
|-----------------------------|
|-----------------------------|
|------------------8-----7----|
|------------------6-----5----|




 FILL 3 END

|--------------------------------------------------------|
|--------------------------------------------------------|
|--------------------------------------------------------|
|--------------------------------------------------------|
|-2------------------------------------------------------|
|-0------------------------------------------------------|

6. Circle of Beliefs

 Tuning Eb


 RIFF 1 VERSE x1

|---------------------------------|---------------------------------|
|---------------------------------|---------------------------------|
|---------------------------------|---------------------------------|
|---------------------------------|---------------------------------|
|-4/5-----5-------4/8-----8-------|-4/5-----5-------4/8-----8-------|
|-2/3-3-3-3-2-2-2-2/6-6-6-6-3-3-3-|-2/3-3-3-3-2-2-2-2/6-6-6-6-5-5-5-|
      . .   . . .     . .   . . .       . .   . . .     . .   . . .


|---------------------------------|---------------------------------|
|---------------------------------|---------------------------------|
|---------------------------------|---------------------------------|
|---------------------------------|---------------------------------|
|-4/5-----5-------4/8-----8-------|-4/5-----5-------4/8-----7---6---|
|-2/3-3-3-3-2-2-2-2/6-6-6-6-3-3-3-|-2/3-3-3-3-2-2-2-2/6-6-6-5---4---|
      . .   . . .     . .   . . .       . .   . . .     . .



 RIFF 2 BRIDGE x1

|---------------------------------|---------------------------------|
|---------------------------------|---------------------------------|
|---------------------------------|---------------------------------|
|---------------------------------|---------------------------------|
|-5/6-----6-------5/9-----9-------|-5/6-----6-------5/9-----9-------|
|-3/4-4-4-4-3-3-3-3/7-7-7-7-4-4-4-|-3/4-4-4-4-3-3-3-3/7-7-7-7-6-6-6-|
      . .   . . .     . .   . . .       . .   . . .     . .   . . .


|---------------------------------|---------------------------------|
|---------------------------------|---------------------------------|
|---------------------------------|---------------------------------|
|---------------------------------|---------------------------------|
|-5/6-----6-------5/9-----9-------|-5/6-----6-------5/9-----8---7---|
|-3/4-4-4-4-3-3-3-3/7-7-7-7-4-4-4-|-3/4-4-4-4-3-3-3-3/7-7-7-6---5---|
      . .   . . .     . .   . . .       . .   . . .     . .



 RIFF 1A BRIDGE x1

|---------------------------------|---------------------------------|
|---------------------------------|---------------------------------|
|---------------------------------|---------------------------------|
|---------------------------------|---------------------------------|
|-4/5-----5-------4/8-----8-------|-4/5-----5-------4/7-----7-------|
|-2/3-3-3-3-2-2-2-2/6-6-6-6-3-3-3-|-2/3-3-3-3-2-2-2-2/5-5-5-5-5-5-5-|
      . .   . . .     . .   . . .       . .   . . .     . .   . . .



 SOLO 1 KING
  WAH                   WAH                            WAH__________
|------------------------------------21b^^--21b^^----|---------------|
|-21fb^^^^r--21b^^^^----21fb^^r--18------------------|---------------|
|----------------------------------------------------|---------------|
|----------------------------------------------------|---------------|
|----------------------------------------------------|-7-8-10-7-8-10-|
|----------------------------------------------------|---------------|

  WAH____________________________________________________________
|-----------------------------------------------------------------|
|-----------------------------------------------------------------|
|-----------------------------------------------------------------|
|-8-9-11-8-9-11-----------------9-11-12-9-11-12-------------------|
|---------------8-10-11-8-10-11-----------------10-11-13-10-11-13-|
|-----------------------------------------------------------------|

  WAH___________________________  WAH___  WAH___
|-------------------------------------------------|-181818-22-21-181818-|
|-----------------------------------------15//24--|---------------------|
|-------------------12-13-15//22--12//22----------|---------------------|
|-11-12-14-11-12-14-------------------------------|---------------------|
|-------------------------------------------------|---------------------|
|-------------------------------------------------|---------------------|


|-21-19-181818-24-22-181818-22-21-181818-22-21-181818-21-19-181818-24-22-|
|------------------------------------------------------------------------|
|------------------------------------------------------------------------|
|------------------------------------------------------------------------|
|------------------------------------------------------------------------|
|------------------------------------------------------------------------|


|-181818-22-21-181818-22b^^--22b^^--22b^^--22b^^--24fb^^^^^^r\\----|
|------------------------------------------------------------------|
|------------------------------------------------------------------|
|------------------------------------------------------------------|
|------------------------------------------------------------------|
|------------------------------------------------------------------|

  WAH______________
|-18-19-21-22----------------------------|
|-------------21\\\\\\\\\\\\\\\\\\\\1----|
|----------------------------------------|
|----------------------------------------|
|----------------------------------------|
|----------------------------------------|




 RIFF 3 x2 UNDER SOLO 1

|---------------------------------------------------------------------------
|---------------------------------------------------------------------------
|---------------------------------------------------------------------------
|---------------------------------------------------------------------------
|-8------------------7------------------5------------------7---------------
|-6-0000000000005678-5-0000000000005678-3-000000000000567850000000000005678-|
    ................   ................   ................   ................



 RIFF 4 x2 UNDER SOLO 1

|-----------------------------|
|-----------------------------|
|-----------------------------|
|-----------------------------|
|-8------7------5------7------|
|-6-6666-5-5555-3-3333-5-5555-|
    ....   ....   ....   ....



 RIFF 4A x2 UNDER SOLO 1

|-----------------------------|
|-----------------------------|
|-----------------------------|
|-8------7------5------7------|
|-6-6666-5-5555-3-3333-5-5555-|
|-----------------------------|
    ....   ....   ....   ....



 RIFF 5 VERSE x2

|-----------------------------|-----------------------------|
|-----------------------------|-----------------------------|
|-----------------------------|-----------------------------|
|-----------------------------|-----------------------------|
|-2-------------3-4-----5-4-3-|-2-------------3-4-----6-5-4-|
|-0000000000000-1-2-000-3-2-1-|-0000000000000-1-2-000-4-3-2-|
  .............     ...         .............     ...



 RIFF 6 BREAK x1

|KING WITH FLANGER EFFECT
|----------------|----------------|----------------|----------------|
|----------------|----------------|----------------|----------------|
|----------------|----------------|----------------|----------------|
|----------------|----------------|----------------|----------------|
|--------------6-|--------------4-|--------------6-|-------7--6--5--|
|-111111111111-4-|-111111111111-2-|-111111111111-4-|-11111-7--6--5--|
| ............     ............     ............     .....
|
|HANNEMAN
|----------------|----------------|----------------|----------------|
|----------------|----------------|----------------|----------------|
|----------------|----------------|----------------|----------------|
|----------------|----------------|----------------|----------------|
|-3--------------|----------------|----------------|-------7--6--5--|
|-1--------------|----------------|----------------|-------7--6--5--|
   x



 RIFF 7 CHORUS x1

|---------------------------------------------------------|
|---------------------------------------------------------|
|---------------------------------------------------------|
|---------------------------------------------------------|
|-4----------5-4-2----------5-4-3----------5-4-4----------|
|-2-22222222-3-2-0-22222222-3-2-1-22222222-3-2-2-22222222-|
    ........       ........       ........       ........


|---------------------------------------------------------|
|---------------------------------------------------------|
|---------------------------------------------------------|
|---------------------------------------------------5--4--|
|-4----------5-4-2----------5-4-3----------5-4-4-5--3--2--|
|-2-22222222-3-2-0-22222222-3-2-1-22222222-3-2-2-3--------|
    ........       ........       ........



 SOLO 2 HANNEMAN

|-18-14-15-14-15-14-18-14-15-14-15-14-18-14-15-14-15-14-18-14-15-14-15-14-|
|-------------------------------------------------------------------------|
|-------------------------------------------------------------------------|
|-------------------------------------------------------------------------|
|-------------------------------------------------------------------------|
|-------------------------------------------------------------------------|


|--------------------------------------------------------------------|
|-20fb^^r^b^^--22fb^^r^b^^-------------------------------------------|
|-----------------------------18-20-21-18-20-21-18-21-20-18-20-18-17-|
|--------------------------------------------------------------------|
|--------------------------------------------------------------------|
|--------------------------------------------------------------------|


|-------------------------------------------------------|
|-------------------------------------------------------|
|-20-18-17----------------------------------------------|
|----------19-17-16-19-17-16-17-19b^^^^-----------------|
|-------------------------------------------------------|
|----------------------------------------16b\\\\\\\\----|




 RIFF 5A x2 UNDER SOLO 2

|-----------------------------|-----------------------------|
|-----------------------------|-----------------------------|
|-----------------------------|-----------------------------|
|-2-------------3-4-----5-4-3-|-2-------------3-4-----5-4-3-|
|-0000000000000-1-2-000-3-2-1-|-0000000000000-1-2-000-3-2-1-|
|-----------------------------|-----------------------------|
  .............     ...         .............     ...



 RIFF 5 VERSE x2

 RIFF 6 BREAK x1

 RIFF 7 CHORUS x1


 SOLO 3 KING

|------------------------------------------|----------------------------|
|-/18b^^-18b-18b-18b-18b-18b-18b-18fb^r\\--|----------------------------|
|------------------------------------------|----------------------------|
|------------------------------------------|-------------------14-15-17-|
|------------------------------------------|----------13-14-16----------|
|------------------------------------------|-12-13-15-------------------|


|-------------------15-16-18181818-13-15-16161616-15-16-18181818-16-18-|
|----------15-17-18----------------------------------------------------|
|-15-16-18-------------------------------------------------------------|
|----------------------------------------------------------------------|
|----------------------------------------------------------------------|
|----------------------------------------------------------------------|


|-19191919-18-19-21212121-19-21-22222222-21-22-24242424-21-24b^^--24b^^^^---
|---------------------------------------------------------------------------
|---------------------------------------------------------------------------
|---------------------------------------------------------------------------
|---------------------------------------------------------------------------
|---------------------------------------------------------------------------

                       N.H. BAR                    WAH_______________________
|------------------------------------------------|-8-9-11-9-8---------------
|-------------------------------------21b\\\\----|------------11-10-8-11-10-
|-/5b^^--4b^^^^^^^^//--5//\\\/\/\\----20b\\\\----|--------------------------
|----------------------5//\\\/\/\\---------------|--------------------------
|------------------------------------------------|--------------------------
|------------------------------------------------|--------------------------

  WAH____________________________________
|------------------------------------------23232323-22222222-20202020-|
|---------------------------------------------------------------------|
|-11-9-8-11-9-8-------------------------------------------------------|
|---------------10-8-7-10-8-7-----------------------------------------|
|-----------------------------9-7-6-9-7-6-----------------------------|
|---------------------------------------------------------------------|


|-19191919-17171717-16161616----|
|-------------------------------|
|-------------------------------|
|-------------------------------|
|-------------------------------|
|-------------------------------|
                            x



 RIFF 8 x1 UNDER SOLO 3

|---------------------------------------------|
|---------------------------------------------|
|---------------------------------------------|
|---------------------------------------------|
|---------------------------------------------|
|-6777777666666666666101010101010777777777777-|
  ...........................................


|---------------------------------------------|
|---------------------------------------------|
|---------------------------------------------|
|---------------------------------------------|
|---------------------------------------------|
|-6777777666666666666101010101010999999999999-|
  ...........................................



 RIFF 8A x1 UNDER SOLO 3

|---------------------------------------------|
|---------------------------------------------|
|---------------------------------------------|
|---------------------------------------------|
|---------------------------------------------|
|-7888888777777777777111111111111888888888888-|
  ...........................................


|---------------------------------------------|
|---------------------------------------------|
|---------------------------------------------|
|---------------------------------------------|
|-------------------------10------9-------5---|
|-78888887777777777770000-8---000-7---000-3---|
  .......................     ...     ...  x



 FILL 1

|------|
|------|
|------|
|------|
|-8----|
|-6----|




 RIFF 9 INTERLUDE x2

|-------------------------------------------------------------------|
|-------------------------------------------------------------------|
|-------------------------------------------------------------------|
|--------------5--------------6--------------5------6---------------|
|--------------5--------------6--------------5------6------8------7-|
|-0-0-0-0-5678---0-0-0-0-5678---0-0-0-0-5678---5678---5678-6-5678-5-|
  . . . .        . . . .        . . . .


|-----------------------------------------------------------|
|-----------------------------------------------------------|
|-----------------------------------------------------------|
|------5--------------6--------------5------6---------------|
|------5--------------6--------------5------6------8------7-|
|-5678---0-0-0-0-5678---0-0-0-0-5678---5678---5678-6-5678-5-|
         . . . .        . . . .



 RIFF 10 INTERLUDE x1

|-----------------------------------------------------------------|
|-----------------------------------------------------------------|
|-----------------------------------------------------------------|
|-----------------------------------------------------------------|
|-2-3-2-------2-4-5---------------2-3-2-------2-4-5---------------|
|-0-1-0-0-0-0-0-2-3-0-0-0-0-0-0-0-0-1-0-0-0-0-0-2-3-2-2-2-2-2-2-2-|
        . . .       . . . . . . .       . . .       . . . . . . .


|-----------------------------------------------------------------|
|-----------------------------------------------------------------|
|-----------------------------------------------------------------|
|-----------------------------------------------------------------|
|-2-3-2-------2-4-5---------------2-3-2-------2-4-5-------3-2-5-4-|
|-0-1-0-0-0-0-0-2-3-0-0-0-0-0-0-0-0-1-0-0-0-0-0-2-3-2-2-2-1-0-3-2-|
        . . .       . . . . . . .       . . .       . . .


|-----------------------------------------------------------------|
|-----------------------------------------------------------------|
|-----------------------------------------------------------------|
|-----------------------------------------------------------------|
|-2-3-2-------2-4-5---------------2-3-2-------2-4-5---------------|
|-0-1-0-0-0-0-0-2-3-0-0-0-0-0-0-0-0-1-0-0-0-0-0-2-3-2-2-2-2-2-2-2-|
        . . .       . . . . . . .       . . .       . . . . . . .


|-----------------------------------------------------------------|
|-----------------------------------------------------------------|
|-----------------------------------------------------------------|
|-----------------------------------------------------------------|
|-2-3-2-------2-4-5---------------2-3-2-------2-4-5---------------|
|-0-1-0-0-0-0-0-2-3-0-0-0-0-0-0-0-0-1-0-0-0-0-0-2-3-2-2-2-1-1-1-1-|
        . . .       . . . . . . .       . . .       . . . . . . .



 RIFF 11 INTERLUDE x4

|---------------------------------|
|---------------------------------|
|---------------------------------|
|---------------------------------|
|-----------2-1---------2-1-----1-|
|-0-0-0-0-3-----2-0-0-3-----1-3---|
  . . . . .     . . . .     . .



 RIFF 10 INTERLUDE x1

 RIFF 1A VERSE x2

|---------------------------------|---------------------------------|
|---------------------------------|---------------------------------|
|---------------------------------|---------------------------------|
|---------------------------------|---------------------------------|
|-4/5-----5-------4/8-----8-------|-4/5-----5-------4/8-----8-------|
|-2/3-3-3-3-2-2-2-2/6-6-6-6-3-3-3-|-2/3-3-3-3-2-2-2-2/6-6-6-6-5-5-5-|
      . .   . . .     . .   . . .       . .   . . .     . .   . . .



 RIFF 2A BRIDGE x1

|---------------------------------|---------------------------------|
|---------------------------------|---------------------------------|
|---------------------------------|---------------------------------|
|---------------------------------|---------------------------------|
|-5/6-----6-------5/9-----9-------|-5/6-----6-------5/9-----9-------|
|-3/4-4-4-4-3-3-3-3/7-7-7-7-4-4-4-|-3/4-4-4-4-3-3-3-3/7-7-7-7-6-6-6-|
      . .   . . .     . .   . . .       . .   . . .     . .   . . .


|---------------------------------|---------------------------------|
|---------------------------------|---------------------------------|
|---------------------------------|---------------------------------|
|---------------------------------|---------------------------------|
|-5/6-----6-------5/9-----9-------|-5/6-----6-5-----5-9-----9-8-7---|
|-3/4-4-4-4-3-3-3-3/7-7-7-7-4-4-4-|-3/4-4-4-4-3-----3-7-----7-6-5---|
      . .   . . .     . .   . . .       . .    x       x



 RIFF 12 BREAK x1

|---------------------------------|---------------------------------|
|---------------------------------|---------------------------------|
|---------------------------------|---------------------------------|
|-12\-----12\-----13\-----14\-----|-12\-----13\-----14\-----12\-----|
|-10\9999-10\9999-11\9999-12\9999-|-10\9999-11\9999-12\9999-10\9999-|
|---------------------------------|---------------------------------|
     ....    ....    ....    ....      ....    ....    ....    ....



 SOLO 4 HANNEMAN

|-21b^^--21b^^----------------------24b^^--24b^^--21-22-24-22-21-24-22-21-|
|-24b^^--24b^^--24b-24b-24b-24b-24b---------------------------------------|
|-------------------------------------------------------------------------|
|-------------------------------------------------------------------------|
|-------------------------------------------------------------------------|
|-------------------------------------------------------------------------|


|-22-21-19-22-21-19-21-19-18-21-19-18-------------------------------------|
|-------------------------------------21-20-18-21-20-18-------------------|
|-------------------------------------------------------21-19-18-21-19-18-|
|-------------------------------------------------------------------------|
|-------------------------------------------------------------------------|
|-------------------------------------------------------------------------|


|-----------------------|-15-13-12-------------------------------------|
|-----------------------|----------15-14-12-15-14-12-------------------|
|-----------------------|----------------------------15-13-12-15-13-12-|
|-20fb^^^^^^r--20b^^----|----------------------------------------------|
|-----------------------|----------------------------------------------|
|-----------------------|----------------------------------------------|


|------------------------------------------------------------------------|
|------------------------------------------------------------------------|
|------------------------------------------------------------------------|
|-14-12-11-14-12-11------------------------------------------------------|
|-------------------13-11-10-13-11-10---------------------------13-14-16-|
|-------------------------------------12-10-9-12-13-15-12-13-15----------|

                                   WAH & BAR///\\\\/\\\////\////\\\\/\\\
|--------------------------------|---------------------------------------|
|--------------------------------|---------------------------------------|
|--------------------------------|-0h4p3p0h4p3p0h4p3p0h4p3p0h4p3p0h4p3p0-|
|-14-15-17-14-15-17--------------|---------------------------------------|
|-------------------14fb^^^^r----|---------------------------------------|
|--------------------------------|---------------------------------------|

  WAH__________________________________
|---------------------------------------|
|---------------------------------------|
|-3-4-6-4-3-----------------------------|
|-----------5-3-2-5-3-2-----------------|
|-----------------------4-2-1-4-2-1-----|
|-----------------------------------3-1-|




 RIFF 13 x8 UNDER SOLO 4

|--------------------------|
|--------------------------|
|--------------------------|
|------------6-----5-----4-|
|-6-5--------4-----3-----2-|
|-4-33333333---333---333---|
     .......   ...   ...



 RIFF 5 VERSE x2


 RIFF 6A BREAK x1

|KING WITH FLANGER EFFECT
|----------------|----------------|----------------|----------------|
|----------------|----------------|----------------|----------------|
|----------------|----------------|----------------|----------------|
|----------------|----------------|----------------|----------------|
|--------------6-|--------------4-|--------------6-|-------7--6--5--|
|-111111111111-4-|-111111111111-2-|-111111111111-4-|-11111-7--6--5--|
| ............     ............     ............     .....
|
|HANNEMAN
|----------------|----------------|----------------|----------------|
|----------------|----------------|----------------|----------------|
|----------------|----------------|----------------|----------------|
|----------------|----------------|----------------|----------------|
|-3--------------|----------------|----------------|----------------|
|-1--------------|----------------|----------------|----------------|
   x


|KING WITH FLANGER EFFECT
|----------------|----------------|----------------|----------------|
|----------------|----------------|----------------|----------------|
|----------------|----------------|----------------|----------------|
|----------------|----------------|----------------|----------------|
|--------------6-|--------------4-|--------------6-|-------7--6--5--|
|-111111111111-4-|-111111111111-2-|-111111111111-4-|-11111-7--6--5--|
| ............     ............     ............     .....
|
|HANNEMAN
|----------------|----------------|----------------|----------------|
|----------------|----------------|----------------|----------------|
|----------------|----------------|----------------|----------------|
|----------------|----------------|----------------|----------------|
|--------------6-|--------------4-|--------------6-|-------x\\\\\\--|
|-111111111111-4-|-111111111111-2-|-111111111111-4-|-11111----------|
 ............     ............     ............     .....



 RIFF 7 CHORUS x1


 RIFF 14 OUTRO x1

|---------------------------------------|
|---------------------------------------|
|---------------------------------------|
|---------------------------------------|
|---------------------------------------|
|-2333333222222222222666666333333333333-|
  .....................................


|---------------------------------------|
|---------------------------------------|
|---------------------------------------|
|---------------------------------------|
|---------------------------------------|
|-2333333222222222222666666555555555555-|
  .....................................


|---------------------------------------|
|---------------------------------------|
|---------------------------------------|
|---------------------------------------|
|---------------------------------------|
|-2333333222222222222666666333333333333-|
  .....................................


|---------------------------------------|
|---------------------------------------|
|---------------------------------------|
|---------------------------------------|
|--------------------------7-6----------|
|-23333332222222222226666665-4----------|
  .........................



 FILL 2 END

|-------------------------------|
|-------------------------------|
|-------------------------------|
|-------------------------------|
|-----6-------5-----------5-4-3-|
|-000-4---000-3---000-000-3-2-1-|
  ...     ...     ... ...


7. SS-3
 Tuning Eb


 RIFF 1 INTRO x1

|x4
|-----------------------------------|-----------------|
|-----------------------------------|-----------------|
|-----------------------------------|-----------------|
|-0-2---3-1---0-2---5-3---0-2---3-1-|---9-8-----7-6---|
|-0-2---2-1---0-2---2-2---0-2---2-1-|---7-6-----5-4---|
|-----0-----0-----0-----0-----0-----|-8-----7-6-----5-|
      .     .     .     .             .     . .     .


|-----------------|-----------------|-----------------|-----------------|
|-----------------|-----------------|-----------------|-----------------|
|-----------------|-----------------|-----------------|-----------------|
|---9-8-----7-6---|---9-8-----7-6---|---9-8-----7-6---|-----------------|
|---7-6-----5-4---|---7-6-----5-4---|---7-6-----5-4---|-5---------------|
|-8-----7-6-----5-|-8-----7-6-----5-|-8-----7-6-----5-|-3---------------|
  .     . .     .   .     . .     .   .     . .     .



 RIFF 2 BREAK x1

|KING
|---------------------------------------------|
|---------------------------------------------|
|---------------------------------------------|
|-------3---------5---------3-----5-4---6-5---|
|-------1---------3---------1-----3-2-5-4-3-6-|
|-2-222---2-2-222---2-2-222---222-----3-----4-|
| . ...   . . ...   . . ...   ...
|
|HANNEMAN
|---------------------------------------------|
|---------------------------------------------|
|---------------------------------------------|
|---------------------------------------------|
|-4-------------------------------------------|
|-2-------------------------------------------|
   x


|KING
|---------------------------------------------|
|---------------------------------------------|
|---------------------------------------------|
|-------3---------5---------------------------|
|-------1---------3---------------------4-3-1-|
|-2-222---2-2-222---2-5-3-2-5-3-2-2-2-2-------|
| . ...   . . ...   . . . . . . . . . . . . .
|
|HANNEMAN
|---------------------------------------------|
|---------------------------------------------|
|---------------------------------------------|
|---------------------------------------------|
|---------------------------------------------|
|---------------------------------------------|



|KING
|---------------------------------------------|
|---------------------------------------------|
|---------------------------------------------|
|-------3---------5---------3-----5-4---6-5---|
|-------1---------3---------1-----3-2-5-4-3-6-|
|-2-222---2-2-222---2-2-222---222-----3-----4-|
| . ...   . . ...   . . ...   ...
|
|HANNEMAN
|---------------------------------------------|
|---------------------------------------------|
|---------------------------------------------|
|-------3--------5----------------------------|
|-------1--------3----------------------------|
|---------------------------------------------|
         x        x


|KING
|---------------------------------------------|
|---------------------------------------------|
|---------------------------------------------|
|-------3---------5---------------------------|
|-------1---------3---------------------4-3-1-|
|-2-222---2-2-222---2-5-3-2-5-3-2-2-2-2-------|
| . ...   . . ...   . . . . . . . . . . . . .
|
|HANNEMAN
|---------------------------------------------|
|---------------------------------------------|
|---------------------------------------------|
|-------3---------5---------------------------|
|-------1---------3---------------------4-3-1-|
|-------------------2-5-3-2-5-3-2-2-2-2-------|
         x          . . . . . . . . . . . . .



 FILL 1

|-------------------------|
|-------------------------|
|-------------------------|
|-------------------------|
|-------------------------|
|-3-2-0-3-2-0-0-0-0-3-2-0-|
  . . . . . . . . . . . .



 RIFF 3 VERSE x1

|-------------------------|-------------------------|
|-------------------------|-------------------------|
|-------------------------|-------------------------|
|-------------------------|-------------------------|
|-3-----------------------|-3-----------1-----------|
|-1-0-0-0-0-0-0-0-0-0-0-0-|-1-0-0-0-0-0-1-0-0-3-2-0-|
    . . . . . . . . . . .     . . . . .   . . . . .


|-------------------------|-------------------------|
|-------------------------|-------------------------|
|-------------------------|-------------------------|
|-------------------------|-------------------------|
|-3-----------------------|-3-----1-----------------|
|-1-0-0-0-0-0-0-0-0-0-0-0-|-1-0-0-1-0-0-3-2-0-1-2-3-|
    . . . . . . . . . . .     . .   . . . . . . . .


|-------------------------|-------------------------|
|-------------------------|-------------------------|
|-------------------------|-------------------------|
|-------------------------|-------------------------|
|-3-----------------------|-3-----------1-----------|
|-1-0-0-0-0-0-0-0-0-0-0-0-|-1-0-0-0-0-0-1-0-0-3-2-0-|
    . . . . . . . . . . .     . . . . .   . . . . .


|-------------------------|-------------------------|
|-------------------------|-------------------------|
|-------------------------|-------------------------|
|-------------------------|-------------------------|
|-3-----------------------|-3-----1-----------------|
|-1-0-0-0-0-0-0-0-0-0-0-0-|-1-0-0-1-0-0-5-3-2-5-3-2-|
    . . . . . . . . . . .     . .   . . . . . . . .



 RIFF 4 CHORUS x1

|x3
|-------------------------------------------------|
|-------------------------------------------------|
|-------------------------------------------------|
|-------------------------------------------------|
|-------------------------------------------------|
|-2-2-2-3-2-0-2-2-2-3-2-0-2-2-2-3-2-0-5-3-2-3-2-0-|
  . . . . . . . . . . . . . . . . . . . . . . . .


|x1
|-------------------------------------------------|
|-------------------------------------------------|
|-------------------------------------------------|
|-------------------------------------------------|
|-------------------------------------------------|
|-2-2-2-3-2-0-2-2-2-3-2-0-5-3-2-3-2-0-3-2-0-3-2-0-|
  . . . . . . . . . . . . . . . . . . . . . . . .



 RIFF 3 VERSE x1


 RIFF 4A CHORUS x1

|x3
|-------------------------------------------------|
|-------------------------------------------------|
|-------------------------------------------------|
|-------------------------------------------------|
|-------------------------------------------------|
|-2-2-2-3-2-0-2-2-2-3-2-0-2-2-2-3-2-0-5-3-2-3-2-0-|
  . . . . . . . . . . . . . . . . . . . . . . . .


|x1
|-------------------------------------------------|
|-------------------------------------------------|
|-------------------------------------------------|
|-------------------------------------6\5---5\4---|
|-------------------------------------4\3-6-3\2-5-|
|-2-2-2-3-2-0-2-2-2-3-2-0-2-2-2-3-2-0-----4-----3-|
  . . . . . . . . . . . . . . . . . .



 RIFF 5 BRIDGE x1

|----------------------|----------------------|
|----------------------|----------------------|
|----------------------|----------------------|
|--------6\5-----5\4---|--------6\5-----5\4---|
|-6------4\3-----3\2---|-6------4\3-----3\2---|
|-444444-----4-------3-|-444444-----4-------3-|
  .....      .       .   ......     .       .


|----------------------|----------------------|
|----------------------|----------------------|
|----------------------|----------------------|
|--------6\5-----5\4---|---4\3-----3\2--------|
|-6------4\3-----3\2---|---2\1-----1\0--------|
|-444444-----4-------3-|-------2-------1------|
  ......     .       .         .       .



 RIFF 4B BREAK x1

|-------------------------------------------------|
|-------------------------------------------------|
|-------------------------------------------------|
|-------------------------------------------------|
|-------------------------------------------------|
|-2-2-2-3-2-0-2-2-2-3-2-0-2-2-2-3-2-0-5-3-2-3-2-0-|
  . . . . . . . . . . . . . . . . . . . . . . . .


|-------------------------------------------------|
|-------------------------------------------------|
|-------------------------------------------------|
|-------------------------------------6\5---5\4---|
|-------------------------------------4\3-6-3\2-5-|
|-2-2-2-3-2-0-2-2-2-3-2-0-2-2-2-3-2-0-----4-----3-|
  . . . . . . . . . . . . . . . . . .



 RIFF 5A BRIDGE x1

|----------------------|----------------------|
|----------------------|----------------------|
|----------------------|----------------------|
|--------6\5-----5\4---|--------6\5-----5\4---|
|-6------4\3-----3\2---|-6------4\3-----3\2---|
|-444444-----4-------3-|-444444-----4-------3-|
  .....      .       .   ......     .       .


|----------------------|----------------------|
|----------------------|----------------------|
|----------------------|----------------------|
|--------6\5-----5\4---|---4\3-----3----------|
|-6------4\3-----3\2---|---2\1-----1----------|
|-444444-----4-------3-|-------2--------------|
  ......     .       .         .    x



 RIFF 6 INTERLUDE x4

|----------------------------------------|
|----------------------------------------|
|----------------------------------------|
|--------------------------------------8-|
|-6--------7h10-7------6--------7h10-6---|
|-6-000000------7-0000-6-000000----------|
    ......        ....   ......


|----------------------------------------|
|----------------------------------------|
|----------------------------------------|
|----------------------------------------|
|-6--------7h10-7------6-----5-----7-----|
|-6-000000------7-0000-6-000-5-000-7-----|
    ......        ....   ...   ...



 RIFF 7 VERSE x2

|-----------------------------------------------|
|-----------------------------------------------|
|-----------------------------------------------|
|-----------------------------------------------|
|-6--------7-6--------710-----------9----10-9-7-|
|-44444444-5-44444444-5-88888888888-77777-8-7-5-|
  ........   ........   ........... .....


|-----------------------------------------------|
|-----------------------------------------------|
|-----------------------------------------------|
|-----------------------------------------------|
|-6--------7-6--------710-----------9-7-910-9-7-|
|-44444444-5-44444444-5-88888888888-7-5-7-8-7-5-|
  ........   ........   ...........



 SOLO 1 HANNEMAN
  WAH      WAH    WAH    WAH_________________________________________
|-12b^^^^--12b^^--12b^^--12-13-12-13-12-13-15-13-12-------------------|
|-15b^^^^--15b^^--15b^^-----------------------------15-14-12-15-14-12-|
|---------------------------------------------------------------------|
|---------------------------------------------------------------------|
|---------------------------------------------------------------------|
|---------------------------------------------------------------------|

  WAH__________________    WAH_________    WAH___________________________
|-------------------------------------------------------------------------|
|-------------------------------------------------------------------------|
|-15-13-12-15-13-12-15b^^--12-15-13-10b^^--9-10-9-10-9-10-12-10-9-12-10-9-|
|-------------------------------------------------------------------------|
|-------------------------------------------------------------------------|
|-------------------------------------------------------------------------|

  WAH____________________________________ WAH
|----------------------------------------------------------------------|
|----------------------------------------------------------------------|
|----------------------------------------------------------------------|
|-11-9-8-11-9-8--------------------------------------------------------|
|---------------10-8-7-10-8-7------------------------------------------|
|-----------------------------9-7-6-9-7-6-16b\\\\SLIDE SLOW\\\\\\\\----|




 RIFF 6A x4 UNDER SOLO 1

|----------------------------------------|
|----------------------------------------|
|----------------------------------------|
|----------------------------------------|
|-6--------------------6-----5-----7-----|
|-6-000000000000000000-6-000-5-000-7-----|
    ..................   ...   ...



 RIFF 6B BREAK x1

|KING
|----------------------------------------|
|----------------------------------------|
|----------------------------------------|
|--------------------------------------8-|
|-6--------7h10-7------6--------7h10-6---|
|-6-000000------7-0000-6-000000----------|
|   ......        ....   ......
|
|HANNEMAN
|----------------------------------------|
|----------------------------------------|
|----------------------------------------|
|----------------------------------------|
|-6--------------------------------------|
|-6--------------------------------------|
   x


|KING
|----------------------------------------|
|----------------------------------------|
|----------------------------------------|
|----------------------------------------|
|-6--------7h10-7------6-----5-----7-----|
|-6-000000------7-0000-6-000-5-000-7-----|
|   ......        ....   ...   ...
|
|HANNEMAN
|----------------------------------------|
|----------------------------------------|
|----------------------------------------|
|----------------------------------------|
|----------------------------------------|
|----------------------------------------|



|KING
|----------------------------------------|
|----------------------------------------|
|----------------------------------------|
|--------------------------------------8-|
|-6--------7h10-7------6--------7h10-6---|
|-6-000000------7-0000-6-000000----------|
|   ......        ....   ......
|
|HANNEMAN
|----------------------------------------|
|----------------------------------------|
|----------------------------------------|
|----------------------------------------|
|-6--------------------6-----------------|
|-6--------------------6-----------------|
   x                    x


|KING
|----------------------------------------|
|----------------------------------------|
|----------------------------------------|
|----------------------------------------|
|-6--------7h10-7------6-----5-----7-----|
|-6-000000------7-0000-6-000-5-000-7-----|
|   ......        ....   ...   ...
|
|HANNEMAN
|----------------------------------------|
|----------------------------------------|
|----------------------------------------|
|----------------------------------------|
|-6--------------------x\\\\\\\\\\\\-----|
|-6--------------------------------------|
   x



 RIFF 7 VERSE x2


 SOLO 2 KING
  N.H. BAR        WAH & BAR/\/\/\/\/\/\N.H. WAH & BAR/\/\/\/\/\/\/\/\/\
|-----------------------------------------------------------------------|
|-----------------------------------------------------------------------|
|-12//\\\\\\\\----12p9p0h12p9p0h12p9p0h9/\\-12p9p0h12p9p0h12p9p0h12p9p0-|
|-----------------------------------------------------------------------|
|-----------------------------------------------------------------------|
|-----------------------------------------------------------------------|

  WAH & BAR N.H. BAR       WAH & BAR                    BAR
|--------------------------------------------------------------------|
|-------------------------------------------------21-23b///\///\\----|
|-0\\\\\\\\h5//\/\/\/\\----0\\\\\\\\h7////\\\\-----------------------|
|--------------------------------------------------------------------|
|--------------------------------------------------------------------|
|--------------------------------------------------------------------|

  WAH________________________________________________     WAH & BAR
|-191919-22-21-1919-22-21-1919-22-21-1919-22-21-19-22b^^-----------|
|---------------------------------------------------------21b\\\\--|
|------------------------------------------------------------------|
|------------------------------------------------------------------|
|------------------------------------------------------------------|
|------------------------------------------------------------------|

  WAH & BAR/\             BAR                          WAH & BAR
|-------------24b^^^^----------------------------------------------|
|-24p21h24p21------------------------------------------------------|
|------------------------------------------------------0\\\\/\/\\--|
|---------------------------------------------x\\\\----------------|
|---------------------------------------------x\\\\----------------|
|------------------------0\\\\DEEP DOWN/\/\\-----------------------|

  WAH & BAR/\/\/\/\/\/\   BAR
|-----------------------------------------|
|-----------------------------------------|
|-3////////////////////24b/\/\\--x\\\\----|
|--------------------------------x\\\\----|
|-----------------------------------------|
|-----------------------------------------|



 RIFF 6A x4 UNDER SOLO 2


 RIFF 8 VERSE x4

|---------------------------------------------|
|---------------------------------------------|
|---------------------------------------------|
|---------------------------------------------|
|---------------------------------------------|
|-0-22222222-3-11111111-0-22222222-5-33333333-|
  . ........ . ........ . ........ . ........

|---------------------------------------------|
|---------------------------------------------|
|---------------------------------------------|
|---------------------------------------------|
|---------------------------------------------|
|-0-22222222-3-11111111-0-22222222-1-33333333-|
  . ........ . ........ . ........ . ........



 RIFF 6 OUTRO x2


 RIFF 6C 0UTRO x1

|KING
|----------------------------------------|
|----------------------------------------|
|----------------------------------------|
|--------------------------------------8-|
|-6--------7h10-7------6--------7h10-6---|
|-6-000000------7-0000-6-000000----------|
|   ......        ....   ......
|
|HANNEMAN
|----------------------------------------|
|----------------------------------------|
|----------------------------------------|
|----------------------------------------|
|-6--------------------6-----------------|
|-6--------------------6-----------------|
   x                    x


|KING
|----------------------------------------|
|----------------------------------------|
|----------------------------------------|
|----------------------------------------|
|-6--------7h10-7------6-----5-----7-----|
|-6-000000------7-0000-6-000-5-000-7-----|
|   ......        ....   ...   ...
|
|HANNEMAN
|----------------------------------------|
|----------------------------------------|
|----------------------------------------|
|----------------------------------------|
|-6--------------------6-----5-----7-----|
|-6--------------------6-000-5-000-7-----|
   x                     ...   ...


|KING
|----------------------------------------|
|----------------------------------------|
|----------------------------------------|
|----------------------------------------|
|-6--------7h10-7------6-----5-----7-----|
|-6-000000------7-0000-6-000-5-000-7-----|
|   ......        ....   ...   ...
|
|HANNEMAN
|----------------------------------------|
|----------------------------------------|
|----------------------------------------|
|----------------------------------------|
|-6--------------------6-----5-----7-----|
|-6--------------------6-000-5-000-7-----|
   x                     ...   ...



 FILL 2 END

|----------------------------------------|
|----------------------------------------|
|----------------------------------------|
|----------------------------------------|
|-6-----4-----5-----7\\\\\\\\------------|
|-6-000-4-000-5-000-7\\\\\\\\------------|
    ...   ...   ...


8. Serenity In Murder

Down 1/2 a step
eb
Bb
Gb
Db
Ab
Eb

Intro A x3
|-------------------------|
|-------------------------|
|-------------------------|
|-------------------------|
|---6-5---5-4---7-6-------|
|-8-----7-----5-----7-6-5-|

Intro B x1
|-------------------------------|
|-------------------------------|
|-------------------------------|
|-------------------------------|
|---6-5---5-4---4-3---3-2-1-0-5-|
|-8-----7-----6-----5---------3-|

Riff 1
|-------------------------------------------------|
|-------------------------------------------------|
|-------------------------------------------------|
|-----------------------------------------5-4-3-2-|
|-4---4-5-4---4---7-5-4---4---4-5-4---4---3-2-1-0-|
|-2-0-2-3-2-0-2-0-5-3-2-0-2-0-2-3-2-0-2-0---------|

Riff 1 (cont'd)
|-----------------------------------------------------|
|-----------------------------------------------------|
|-----------------------------------------------------|
|-----------------------------------------------------|
|-4---4-5-4---4---7-5-4---4---4-5-4-----------2-------|
|-2-0-2-3-2-0-2-0-5-3-2-0-2-0-2-3-2-0-2-0-3-4---5-4-3-|

Riff 2
|-------------------------------------------------|
|-------------------------------------------------|
|-------------------------------------------------|
|-----------------------------------------5-4-3-2-|
|-4---4-5-4---4---7-5-4---4---4-5-4---4---3-2-1-0-|
|-2-0-2-3-2-0-2-0-5-3-2-0-2-0-2-3-2-0-2-0---------|

Riff 2 (cont'd)
|---------------------------------------|
|---------------------------------------|
|---------------------------------------|
|---------------------------------------|
|-4---4-5-4---4---7-5-4---4---4-5-4-----|
|-2-0-2-3-2-0-2-0-5-3-2-0-2-0-2-3-2-0-2-|

Riff 3
|-------------------------------------------------|
|-------------------------------------------------|
|-------------------------------------------------|
|-------------2-------------------3---------------|
|-----2---2-3---3-2-------3---3-4---4-3-------2---|
|-3-4---4-----------4-4-5---5-----------5-3-4---4-|

|-----------------------------------------------------|
|-----------------------------------------------------|
|-----------------------------------------------------|
|-----2-------------------1-------------------0-------|
|-2-3---3-2-------1---1-2---2-1-------0---0-1---1-0---|
|-----------4-2-3---3-----------3-1-2---2-----------1-|

Riff 4  x 2
Guitar 1
|---------------------------------------|
|---------------------------------------|
|---------------------------------------|
|---------------------------------------|
|---------------------------------------|
|-0-0-0-0-2h5p2-0-0-0-0-1h4p1-0-0-0h3p0-|
PMˇ ˇ ˇ ˇ       ˇ ˇ ˇ ˇ       ˇ ˇ
|-----------------------------------|
|-----------------------------------|
|-----------------------------------|
|-----------------------------------|
|---------------------------------1-|
|-0-0-0-0-2h5p2-0-0-0-0-1h4p1-0-0-1-|
PMˇ ˇ ˇ ˇ       ˇ ˇ ˇ ˇ       ˇ ˇ

Guitar 2 x1
|-----------------------------------|
|-----------------------------------|
|-----------------------------------|
|-----------------------------------|
|-2~~~------------------------------|
|-0~~~(let ring)--------------------|

Riff 5 A x3
|---------------------------------------|
|---------------------------------------|
|---------------------------------------|
|---------------------------------------|
|---------------------------------------|
|-0-0-0-0-2h5p2-0-0-0-0-1h4p1-0-0-0h3p0-|
PMˇ ˇ ˇ ˇ       ˇ ˇ ˇ ˇ       ˇ ˇ
|-----------------------------------|
|-----------------------------------|
|-----------------------------------|
|-----------------------------------|
|---------------------------------1-|
|-0-0-0-0-2h5p2-0-0-0-0-1h4p1-0-0-1-|
PMˇ ˇ ˇ ˇ       ˇ ˇ ˇ ˇ       ˇ ˇ

Riff 5 B x1
|---------------------------------------|
|---------------------------------------|
|---------------------------------------|
|---------------------------------------|
|---------------------------------------|
|-0-0-0-0-2h5p2-0-0-0-0-1h4p1-0-0-0h3p0-|
PMˇ ˇ ˇ ˇ       ˇ ˇ ˇ ˇ       ˇ ˇ
|-----------------------------------------|
|-----------------------------------------|
|-----------------------------------------|
|-----------------------------------1-----|
|-----------------------------------1-----|
|-0-0-0-0-2h5p2-0-0-0-0-1h4p1-0-0-3---2-3-|
PMˇ ˇ ˇ ˇ       ˇ ˇ ˇ ˇ       ˇ ˇ


Riff 6 x2
|-----------------------------|
|-----------------------------|
|-----------------------------|
|-----------------------------|
|-2-3-----1-2-----5-3-----4-2-|
|-2-3-0-0-1-2-0-0-5-3-0-0-4-2-|
PM    ˇ ˇ     ˇ ˇ     ˇ ˇ
|---------------------------------|
|---------------------------------|
|---------------------------------|
|-------------------------------1-|
|-2-3-----1-2-----5-3-----4-2---1-|
|-2-3-0-0-1-2-0-0-5-3-0-0-4-2-3---|

Solo 1
|-------------------17-17b~~--14b~~-14~~--14-15-14-15-17-14h15p14------|
|--15b-15b~~--15b~~----------------------------------------------------|
|--14b-14b~~--14b~~----------------------------------------------------|
|----------------------------------------------------------------------|
|----------------------------------------------------------------------|
|----------------------------------------------------------------------|

|-----------------------------------------------------------------------|
|-17-14h15p14-14-14-15-14-----------------------------------------------|
|-------------------------17-14-16-17-16-14----------------------8-9-8-9|
|-----------------------------------------------9-8~--8-9-8-9-11--------|
|-----------------------------------------------------------------------|
|-----------------------------------------------------------------------|

|-----------------------------------21b-|
|------------------------------\19------|
|-11-8-9-8---------------\12---\18------|
|----------11-8-9-8-9-8~-\12------------|
|---------------------------------------|
|---------------------------------------|

Rhythm 1 A x1.5
|-----------------------------|
|-----------------------------|
|-----------------------------|
|-----------------------------|
|---------6\5-----5\4---------|
|-0-0-0-0-4\3-0-0-3\2-0-0-0-0-|

                               1            2
Rhythm 1 A (cont'd)          |¯¯|¯¯¯¯¯¯¯¯¯¯¯¯
|-------------------------------|-----------|
|-------------------------------|-----------|
|-------------------------------|-----------|
|-------------------------------|---1-------|
|---------6\5-----5\4---------3-|---1-------|
|-0-0-0-0-4\3-0-0-3\2-0-0-0-0-1-|-3---3-2-1-|

Rhythm 1 B
|---------------------------------------|
|---------------------------------------|
|---------------------------------------|
|---------------------------------------|
|---------------------------------------|
|-0-0-0-0-2h5p2-0-0-0-0-1h4p1-0-0-0h3p0-|
PMˇ ˇ ˇ ˇ       ˇ ˇ ˇ ˇ       ˇ ˇ
|-----------------------------------|
|-----------------------------------|
|-----------------------------------|
|-----------------------------------|
|---------------------------------1-|
|-0-0-0-0-2h5p2-0-0-0-0-1h4p1-0-0-1-|
PMˇ ˇ ˇ ˇ       ˇ ˇ ˇ ˇ       ˇ ˇ

Riff 7 x4
|---------------------------------|
|---------------------------------|
|---------------------------------|
|-2-------1-----------------------|
|-2-------1---------5-3-----4-2---|
|---4-3-0---3-2-0-0-5-3-0-0-4-2-0-|


Riff 8 Guitar 2 only
|--------------------------------|
|--------------------------------|
|--------------------------------|
|--------------------------------|
|--------------------------------|
|-000000000333333000666666666666-|

Solo 2
|-21-21-21-18-18-18-17-17-17-18-18-17-17-15-15-21-21-21-17-18-17-|
|----------------------------------------------------------------|
|----------------------------------------------------------------|
|----------------------------------------------------------------|
|----------------------------------------------------------------|
|----------------------------------------------------------------|

|---------------------------------------------------------------|
|-19-16-17-16---------------------------------------------------|
|--------------18-15-16-15--------------------------------------|
|---------------------------17-14-15-14-------------------------|
|---------------------------------------17-14-15-14-------------|
|----------------------------------------------------17\--12-12-|

|----------------------------------------------------------------|
|----------------------------------------------------------------|
|----------------------------------------------------------------|
|-------------------------------------------------------12-14-12-|
|----------------------12-12-14-12-14-12-12-12-14-12-14----------|
|-12-15-12-15-12-12-12-------------------------------------------|

|--------------------------12-14-15--18-18-18-17-17-17-15-15-|
|-----------------12-13-15-----------------------------------|
|-12-15--12-14-15--------------------------------------------|
|------------------------------------------------------------|
|------------------------------------------------------------|
|------------------------------------------------------------|

|-17-17-17-18-18-21-21-21-22-22-22-22-21-21-18-18-21-21-22-22-|
|-------------------------------------------------------------|
|-------------------------------------------------------------|
|-------------------------------------------------------------|
|-------------------------------------------------------------|
|-------------------------------------------------------------|

|-22b-22b-22b~~~~~~~\----------------------------------------|
|------------------------------------------------------------|
|------------------------------------------------------------|
|------------------------------------------------------------|
|------------------------------------------------------------|
|------------------------------------------------------------|

Rhythm 2
|--------------------------------|
|--------------------------------|
|--------------------------------|
|--------------------------------|
|--------------------------------|
|-000000000333333000666666666666-|

Outro
|-------------------------------------------------|
|-------------------------------------------------|
|-------------------------------------------------|
|-----------------------------------------5-4-3-2-|
|-4---4-5-4---4---7-5-4---4---4-5-4---4---3-2-1-0-|
|-2-0-2-3-2-0-2-0-5-3-2-0-2-0-2-3-2-0-2-0---------|

|-----------------------------------------------------|
|-----------------------------------------------------|
|-----------------------------------------------------|
|-----------------------------------------------------|
|-4---4-5-4---4---7-5-4---4---4-5-4-----------2-------|
|-2-0-2-3-2-0-2-0-5-3-2-0-2-0-2-3-2-0-2-0-3-4---5-4-3-|

|-------------------------------------------------|
|-------------------------------------------------|
|-------------------------------------------------|
|-----------------------------------------5-4-3-2-|
|-4---4-5-4---4---7-5-4---4---4-5-4---4---3-2-1-0-|
|-2-0-2-3-2-0-2-0-5-3-2-0-2-0-2-3-2-0-2-0---------|

|---------------------------------------------------|
|---------------------------------------------------|
|---------------------------------------------------|
|---------------------------------------------------|
|-4---4-5-4---4---7-5-4---4---4-5-4---4---4---4---4-|
|-2-0-2-3-2-0-2-0-5-3-2-0-2-0-2-3-2-0-2-0-2-0-2-0-2-|


Song Structure
Intro A x3
Intro B x1
Riff 1 x1
Riff 2 x1
Riff 3 x1
Riff 4 x2
Riff 5A X3
Riff 5B x1
Riff 6 x2
Solo 1
Riff 5A x3
Riff 5B x1
Riff 7 x4
Riff 8 x1
Solo 2
Riff 7 x4
Outro

9. 213
Tuning Eb


 RIFF 1 INTRO x2

|KING CLEAN WITH REVERB AND DELAY
|-------0---------------0-------------------------|
|-----0---0-----------0---------------------------|
|---3-------3---3---3-----------------------------|
|-5-----------5---4-------------------------------|
|-------------------------------------------------|
|-------------------------------------------------|




 RIFF 2 INTRO x1

|KING CLEAN WITH REVERB AND DELAY
|-------0---------------0---------------0---------|
|-----0---0-----------0---0-----------0---0-------|
|---3-------3---3---3-------3---3---3-------3---3-|
|-5-----------5---4-----------4---3-----------3---|
|-------------------------------------------------|
|-------------------------------------------------|


|KING CLEAN WITH REVERB AND DELAY
|-------0---------------0---------------0---------|
|-----0---0-----------0---0-----------0-----------|
|---3-------3---3---3-------3---3---3-------------|
|-2-----------2---1-----------1---0---------------|
|-------------------------------------------------|
|-------------------------------------------------|


|KING CLEAN WITH REVERB AND DELAY
|-------0---------------0---------|
|-----0---0-----------0-----------|
|---3-------3---3---3-------------|
|-1-----------1---0---------------|
|---------------------------------|
|---------------------------------|




 RIFF 3 INTRO x4

|KING CLEAN WITH REVERB AND DELAY
|-------0---------------0---------|
|-----0---0-----------0---0-------|
|---3-------3---3---3-------3---3-|
|-5-----------5---4-----------4---|
|---------------------------------|
|---------------------------------|
|
|
|HANNEMAN
|---------------------------------|
|---------------------------------|
|---------------------------------|
|---------------------------------|
|-5-------5-5-5-5-4---------------|
|-3-------3-3-3-3-2---------------|
          . . . .



 RIFF 4 INTRO x2

|KING CLEAN WITH REVERB AND DELAY
|-------0--------0--------0--------0--|
|-----0--------0--------0--------0----|
|---3--------3--------3--------3------|
|-1--------0--------------------------|
|-------------------2--------1--------|
|-------------------------------------|
|
|
|HANNEMAN
|-------------------------------------|
|-------------------------------------|
|-------------------------------------|
|-8--------7--------4--------3--------|
|-6--------5--------2--------1--------|
|-------------------------------------|




 FILL 1

|KING
|-------------------------------------|
|-------------------------------------|
|-------------------------------------|
|-------------------------------------|
|-2-----------------------------------|
|-0-----------------------//15b^\\\\--|
|
|
|HANNEMAN
|-------------------------------------|
|-------------------------------------|
|-------------------------------------|
|-------------------------------------|
|-2-----------------------------------|
|-0---------------------------19\\\\--|




 RIFF 5 INTRO x4

|KING
|-----------------------------------------------|
|-----------------------------------------------|
|-----------------------------------------------|
|-----------------------------------------------|
|-2----------------------3----------------------|
|-0----------------------1----------------------|
|
|
|HANNEMAN
|-----------------------------------------------|
|-----------------------------------------------|
|-----------------------------------------------|
|-5----------------------5----------------------|
|-------5-7-8-7-5--------------5-7-8-7-5--------|
|---6-7-----------7-6-5----6-7-----------7-6-5--|



|KING
|-----------------------------------------------|
|-----------------------------------------------|
|-----------------------------------------------|
|-----------------------------------------------|
|-2----------------------5----------3-----------|
|-0----------------------3----------1-----------|
|
|
|HANNEMAN
|-----------------------------------------------|
|-----------------------------------------------|
|-----------------------------------------------|
|-5----------------------5----------------------|
|-------5-7-8-7-5--------------5-7-8-7-5--------|
|---6-7-----------7-6-5----6-7-----------7-6-5--|




 RIFF 6 MAIN x2

|-------------------------------------------|---------|
|-------------------------------------------|---------|
|-------------------------------------------|---------|
|-------------------------------------------|---------|
|-----4---3-----3-----4---4---3-----3---4---|---------|
|-2-2---2---2-2---2-2---2---2---2-2---2---2-|-320-2-3-|
  . .                                         ... . .


|---------------------------------------|---------|---------|
|---------------------------------------|---------|---------|
|---------------------------------------|---------|---------|
|---------------------------------------|---------|---------|
|-4---3-----3-----4---4---3-----3---4---|---------|---------|
|---2---2-2---2-2---2---2---2-2---2---2-|-320-2-3-|-320-2-3-|
                                          ... . .   ... . .



 RIFF 7 VERSE x4

|---------------------------------|---------------------------------|
|---------------------------------|---------------------------------|
|---------------------------------|---------------------------------|
|---------------------------------|-------------------------2-5-4^--|
|-3-2-------------3-2-----3-------|-3-2-------------3-2---4---------|
|-1-0-0-0-0-0-0-0-1-0-000-1-111-1-|-1-0-0-0-0-0-0-0-1-0-0-----------|
      . . . . . .     ...   ... .       . . . . . .     .



 FILL 2

|-----|
|-----|
|-----|
|-----|
|-4-4-|
|-2-2-|
  . .



 RIFF 8 CHORUS x1


|--------------------------------|--------------------------------|
|--------------------------------|--------------------------------|
|--------------------------------|--------------------------------|
|--------------------------------|--------------------------------|
|-5-----4---------3--6-6-6-6-6-6-|-5-----4---------3--4-2-5-4-2-4-|
|---2-2---2-2-5-5----4-4-4-4-4-4-|---2-2---2-2-5-5----2-0-3-2-0-2-|
    . .   . . . .    . . . . . .     . .   . . . .    . . . . . .


|--------------------------------|--------------------------------|
|--------------------------------|--------------------------------|
|--------------------------------|--------------------------------|
|--------------------------------|--------------------------------|
|-5-----4---------3--5-5-5-5-5-5-|-5-----4---------3--4-2-5-4-2-4-|
|---2-2---2-2-5-5----3-3-3-3-3-3-|---2-2---2-2-5-5----2-0-3-2-0-2-|
    . .   . . . .    . . . . . .     . .   . . . .    . . . . . .



 RIFF 7 VERSE x4

 FILL 2


 RIFF 8A CHORUS x1

|--------------------------------|--------------------------------|
|--------------------------------|--------------------------------|
|--------------------------------|--------------------------------|
|--------------------------------|--------------------------------|
|-5-----4---------3--6-6-6-6-6-6-|-5-----4---------3--4-2-5-4-2-4-|
|---2-2---2-2-5-5----4-4-4-4-4-4-|---2-2---2-2-5-5----2-0-3-2-0-2-|
    . .   . . . .    . . . . . .     . .   . . . .    . . . . . .


|--------------------------------|-----------------|
|--------------------------------|-----------------|
|--------------------------------|-----------------|
|--------------------------------|-----------------|
|-5-----4---------3--5-5-5-5-5-5-|-5-----4---------|
|---2-2---2-2-5-5----3-3-3-3-3-3-|---2-2---2-2-5-5-|
    . .   . . . .    . . . . . .     . .   . . . .


|-----------------|-----------------|
|-----------------|-----------------|
|-----------------|-----------------|
|-----------------|-----------------|
|-----------------|-------------4---|
|-320-0-2-3-5-3-2-|-320-0-2-3-0-2---|
  ... . . . . . .   ... . . . .  x



 RIFF 9 INTERLUDE x2

|--------------------------------|
|--------------------------------|
|--------------------------------|
|--------------------------------|
|-2-----1------------1---1---1---|
|---0-0---0-0-2-2-3----3---3---3-|



|--------------------------------|
|--------------------------------|
|--------------------------------|
|--------------------------------|
|-2-----1------------4-2-5-4-2-4-|
|---0-0---0-0-2-2-3--2-0-3-2-0-2-|
                     . . . . . .



 SOLO HANNEMAN WITH HEAVY REVERB
  WAH_______  A.H. BAR          WAH______________________________________
|-------------------------------------------------------------------------|
|-------------------------------------------------------------------------|
|-3b^^^^^^^^--3b//\\\//\\\//\\--3-4-3-4-3-4-6-4-3-------------------------|
|-------------------------------------------------5-3-2-5-3-2-------------|
|-------------------------------------------------------------4-2-1-4-2-1-|
|-------------------------------------------------------------------------|

  WAH     WAH A.H.  WAH A.H.  WAH____  WAH    WAH____  WAH
|-------------------------------------------------------------|
|-------------------------------------------------------------|
|-----------------------------/11b^^^--10b^^--/17b^^^--16b^^--|
|-------------------/9^---------------------------------------|
|-2b^^----/7^-6b^^------6b^^----------------------------------|
|-------------------------------------------------------------|

  WAH__     WAH      WAH____________      WAH_______________________
|-/18b^^^^--18b^^^^--18b-18b-18b-18b^^^^--17-18-17-18-17-18-20-18-17-|
|--------------------------------------------------------------------|
|--------------------------------------------------------------------|
|--------------------------------------------------------------------|
|--------------------------------------------------------------------|
|--------------------------------------------------------------------|

  WAH____________________________________          WAH__   WAH
|------------------------------------------------|------------------|
|-20-19-17-20-19-17------------------------------|-//20b^^-20b^^\\--|
|-------------------20-18-17-20-18-17-15b^^\\----|------------------|
|------------------------------------------------|------------------|
|------------------------------------------------|------------------|
|------------------------------------------------|------------------|

  WAH__    WAH      WAH__      WAH__      WAH__    WAH & BAR N.H. BAR
|---------------------------------------------------------------------------|
|-//20b^^--20b^^\\--//20b^^\\--//20b^^\\--//20b^^---------------------------|
|--------------------------------------------------0\\\\\\\\h4//\\\\\\\\----|
|---------------------------------------------------------------------------|
|---------------------------------------------------------------------------|
|---------------------------------------------------------------------------|




 RIFF 7A x2 UNDER SOLO

|---------------------------------|----------------------------------|
|---------------------------------|----------------------------------|
|---------------------------------|----------------------------------|
|---------------------------------|----------------------------------|
|-3-2-------------3-2-------------|-3-2-----6-5------3-2-------------|
|-1-0-0-0-0-0-0-0-1-0-0-0-0-0-0-0-|-1-0-000-4-3-0000-1-0-0-0-0-0-0-0-|
      . . . . . .     . . . . . .       ...     ....     . . . . . .



 RIFF 7B x1 UNDER SOLO

|---------------------------------|----------------------------------|
|---------------------------------|----------------------------------|
|---------------------------------|----------------------------------|
|---------------------------------|----------------------------------|
|-5-4-------------5-4-------------|-5-4-----8-7------5-4-------------|
|-3-2-2-2-2-2-2-2-3-2-2-2-2-2-2-2-|-3-2-222-6-5-2222-3-2-2-2-2-2-2-2-|
      . . . . . .     . . . . . .       ...     ....     . . . . . .


|---------------------------------|----------------------------------|
|---------------------------------|----------------------------------|
|---------------------------------|----------------------------------|
|---------------------------------|----------------------------------|
|-5-4-------------5-4-------------|-5-4-----8-7------5---------------|
|-3-2-2-2-2-2-2-2-3-2-2-2-2-2-2-2-|-3-2-222-6-5-2222-3-1-1-1-1-1-1-1-|
      . . . . . .     . . . . . .       ...     ....   . . . . . . .



 RIFF 9A INTERLUDE x2

|--------------------------------|
|--------------------------------|
|--------------------------------|
|--------------------------------|
|-2-----1------------1---1---1---|
|---0-0---0-0-2-2-3----3---3---3-|



|-----------------|
|-----------------|
|-----------------|
|-----------------|
|-2-----1---------|
|---0-0---0-0-2-2-|




 RIFF 10 BREAK x1

|-----------------|-----------------|-----------------|-----------------|
|-----------------|-----------------|-----------------|-----------------|
|-----------------|-----------------|-----------------|-----------------|
|-----------------|-----------------|-----------------|-----------2---1-|
|-----------------|-----------------|-----------------|-----------2---1-|
|-320-0-2-3-5-3-2-|-320-0-2-3-4-3-2-|-320-0-2-3-5-3-2-|-320-0-2-3---3---|
  ... . . . . . .   ... . . . . . .   ... . . . . . .   ... . . .   .


|-----------------|-----------------|-----------------|-----------------|
|-----------------|-----------------|-----------------|-----------------|
|-----------------|-----------------|-----------------|-----------------|
|-----------------|-----------------|-----------------|-----------------|
|-----------------|-----------------|-----------------|-----------------|
|-320-0-2-3-5-3-2-|-320-0-2-3-4-3-2-|-320-0-2-3-5-3-2-|-320-0-2-3-4-3-2-|
  ... . . . . . .   ... . . . . . .   ... . . . . . .   ... . . . . . .



 RIFF 6 MAIN x2


 FILL 3 END

|------------|
|------------|
|------------|
|------------|
|-------5----|
|-320-2-3----|
  ... .  x

10. Mind Control

Tuning Eb


 RIFF 1 MAIN x2

|------------------------------------|------------------------------------|
|------------------------------------|------------------------------------|
|------------------------------------|------------------------------------|
|------------------------------------|------------------------------------|
|----------6p3------4------5----4----|----------6p3------4------6\5-6-4---|
|-33333333-----3333-4-3333-3----2----|-33333333-----3333-4-3333-6\5-6-4---|
  ........     ....   ....             ........     ....   ....



 RIFF 2 BRIDGE x2

|---------------------|---------------------|
|---------------------|---------------------|
|---------------------|---------------------|
|----------5p2--------|----------4p2--------|
|-1-------------------|-2-------------------|
|-1-000000-----000000-|-2-000000-----000000-|
    ......     ......     ......     ......


|---------------------|---------------------|
|---------------------|---------------------|
|---------------------|---------------------|
|----------3p2--------|---------------------|
|-3-------------------|-1---------------3-2-|
|-3-000000-----000000-|-1-0000000000000-3-2-|
    ......     ......     .............



 RIFF 1 MAIN x2

 RIFF 2 BRIDGE x2

 RIFF 1 MAIN x2

 RIFF 2 BRIDGE x2


 SOLO 1 HANNEMAN
  WAH____      WAH__________________________________________________
|--------------------------------------------------------------------|
|--------------------------------------------------11-12-14-11-12-14-|
|-3///12b^^^^--10-12-13-10-12-13-12-13-15-12-13-15-------------------|
|--------------------------------------------------------------------|
|--------------------------------------------------------------------|
|--------------------------------------------------------------------|

  WAH_________      WAH______    WAH______  WAH_______   WAH_
|----12-13-15b^^^^--15p14-14b^^--12h14-12b^^\\10b^^\\\\--------------|
|-15-----------------------------------------------------------------|
|--------------------------------------------------------------------|
|--------------------------------------------------------------------|
|--------------------------------------------------------//2b^^^^----|
|--------------------------------------------------------------------|

  WAH_____        WAH____    WAH___    WAH___      WAH________________
|------------------------------------------------|-----2-3-5-3-2-------|
|------------------------------------------------|-3-5-----------5-3-2-|
|--------------------------------------/5^-4b^^--|---------------------|
|----------------------------4h5-4b^^------------|---------------------|
|-2h3p2-1b^^^^----2b^^/3b^^----------------------|---------------------|
|------------------------------------------------|---------------------|

  WAH___________
|-----------------------|
|-5-3-2-----------------|
|-------5-4-2/4b^^\\----|
|-----------------------|
|-----------------------|
|-----------------------|



 RIFF 3 UNDER SOLO x8

|-----------------------------------|
|-----------------------------------|
|-----------------------------------|
|-----------------------------------|
|-2---------------3-2---------------|
|-0-0-0-0-0-0-0-0-1-0-0-0-0-0-0-0-0-|
    . . . . . . .     . . . . . . .



 FILL 1 UNDER SOLO 1

|---|
|---|
|---|
|---|
|---|
|-0-|




 RIFF 4 INTERLUDE x1

|KING
|---------------------------------------------------------|
|---------------------------------------------------------|
|-------------------------------------------------10--9^--|
|---------------7--6^-10--9^----------------7--6^---------|
|-7--6^-10--9^----------------7--6^-10--9^----------------|
|---------------------------------------------------------|
|
|
|HANNEMAN
|---------------------------------------------------------|
|---------------------------------------------------------|
|---------------------------------------------------------|
|---------------7--6^-10--9^----------------7--6^-10--9^--|
|-7--6^-10--9^----------------7--6^-10--9^----------------|
|---------------------------------------------------------|



|KING                                                 TRILL
|-------------------------------------------------------------|
|-------------------------------------------------------------|
|-------------------------------------------------10--9h10p9--|
|---------------7--6^-10--9^----------------------------------|
|-7--6^-10--9^------------------------------7--6^-------------|
|-----------------------------7--6^-10--9^--------------------|
|
|
|HANNEMAN                                             TRILL
|-------------------------------------------------------------|
|-------------------------------------------------------------|
|-------------------------------------------------------------|
|---------------7--6^-10--9^----------------7--6^-10--9h10p9--|
|-7--6^-10--9^----------------7--6^-10--9^--------------------|
|-------------------------------------------------------------|




 RIFF 5 CHORUS x4

|-----------------------------------------------------------|
|-----------------------------------------------------------|
|-----------------------------------------------------------|
|-----------------------------------------------------------|
|--------9-------------8-------------7----------------------|
|-443333-7-3333-443333-6-3333-443333-5-3333-443333-44444444-|
  ......   .... ......   .... ......   .... ...... ........



 SOLO 2 KING
  WAH______________________________________________________________________
|---------------------------------------------------------------------------
|---------------------------------------------------------------------------
|-//16-14-13----------16-14-13----------16-14-13----------16-14-13----------
|------------15-13-12----------15-13-12----------15-13-12----------15-13-12-
|---------------------------------------------------------------------------
|---------------------------------------------------------------------------

  WAH____________________________________________________________________
|-------------------------------------------------------------------------|
|-------------------------------------------------------------------------|
|-17-16-14----------17-16-14----------17-16-14----------17-16-14----------|
|----------16-15-13----------16-15-13----------16-15-13----------16-15-13-|
|-------------------------------------------------------------------------|
|-------------------------------------------------------------------------|

  WAH____________________________________________________________________
|-------------------------------------------------------------------------|
|-------------------------------------------------------------------------|
|-19-17-16----------19-17-16----------19-17-16----------19-17-16----------|
|----------18-16-15----------18-16-15----------18-16-15----------18-16-15-|
|-------------------------------------------------------------------------|
|-------------------------------------------------------------------------|

  WAH_____________________________________________    N.H. BAR    WAH & BAR
|-20-19-17----------22-20-19----------------19-20b^^--17//////\\-----------|
|----------19-18-16----------22-21-19-21-22--------------------------------|
|--------------------------------------------------------------------------|
|-----------------------------------------------------------------0\\\\\\--|
|--------------------------------------------------------------------------|
|--------------------------------------------------------------------------|

  WAH________           N.H. BAR       N.H. BAR    WAH____________________
|-17fb171717r\\\--------17///\\---------17///\\----17-19-20-19-17----------|
|-----------------x\\\\----------x\\\\----------------------------19-18-16-|
|--------------------------------------------------------------------------|
|--------------------------------------------------------------------------|
|--------------------------------------------------------------------------|
|--------------------------------------------------------------------------|

  WAH____________________________________________________________________
|-------------------------------------------------------------------------|
|-19-18-16----------------------------------------------------------------|
|----------19-17-16-19-17-16----------------------------------------------|
|----------------------------18-16-15-18-16-15----------------------------|
|----------------------------------------------17-15-14-17-15-14----------|
|----------------------------------------------------------------16-14-13-|

  N.H. WAH & BAR  WAH_________     WAH______________________________________
|----------------------------------23----------------20-------------23------
|---------------////21b^^^^^^^^-------22-------21h22----21----21h22----22---
|----------------------------------------22----------------20------------22-
|-------------------------------------------21------------------------------
|---------------------------------------------------------------------------
|-15\\\\\\\\----------------------------------------------------------------
  WAH & BAR                    WAH_        N.H. BAR
|------------------------------/24b^^^^------------------------------|
|--------------------------------------------------------------------|
|------------------------------------------22\\\\////\\////////\\----|
|-0\\////RISE GRADUALLY////------------------------------------------|
|-2\\//////////////////////------------------------------------------|
|--------------------------------------------------------------------|




 RIFF 6 x4 UNDER SOLO 2

|------------------------------------|------------------------------------|
|------------------------------------|------------------------------------|
|------------------------------------|------------------------------------|
|------------------------------------|------------------------------------|
|----------4p1------2------3----2----|----------4p1------2------4\3-4-2---|
|-11111111-----1111-2-1111-1----0----|-11111111-----1111-2-1111-4\3-4-2---|
  ........     ....   ....             ........     ....   ....



 FILL 1 UNDER SOLO 2


 RIFF 7 x1 UNDER SOLO

|-------------------------|-------------------------|
|-------------------------|-------------------------|
|-------------------------|-------------------------|
|-2--1--------------------|-------------------------|
|-2--1--4--3--6--5--8--7--|-3--2--5--4--7--6--9--8--|
|-------2--1--4--3--6--5--|-1--0--3--2--5--4--7--6--|


|-------------------------|---------------------|
|-------------------------|---------------------|
|-------------------------|---------------------|
|-2--1--------------------|---------------------|
|-2--1--4--3--6--5--8--7--|-3--2--5--4--7--6--9-|
|-------2--1--4--3--6--5--|-1--0--3--2--5--4--7-|



 RIFF 1 MAIN x2

 RIFF 2 BRIDGE x2

 RIFF 1 MAIN x2

 RIFF 5 CHORUS x4


 FILL 2 END

|------|
|------|
|------|
|------|
|-6----|
|-4----|
   x



Tap to rate this tab
# A B C D E F G H I J K L M N O P Q R S T U V W X Y Z