Guitaretab - guitar tabs
Song name
# A B C D E F G H I J K L M N O P Q R S T U V W X Y Z

Slayer - Seasons In The Abyss tab

#----------------------------------PLEASE NOTE---------------------------------#
#This file is the author's own work and represents their interpretation of the #
#song. You may only use this file for private study, scholarship, or research. #
#------------------------------------------------------------------------------#

SEASONS IN THE ABYSS
As recorded by Slayer
(From the 1990 Album SEASONS IN THE ABYSS)

Transcribed by Fenian
	

Words by Tom Araya Music by Jeff Hanneman

E5
0 2 2 x x x

Gtr I (Eb Ab Db Gb Bb Eb) - 'Gtr. 1'
Gtr II (Eb Ab Db Gb Bb Eb) - 'Gtr. 2'
Gtr III (Eb Ab Db Gb Bb Eb) - 'Gtr. 3'
Gtr IV (Eb Ab Db Gb Bb Eb) - 'Gtr. 4'
Gtr V (Eb Ab Db Gb Bb Eb) - 'Steel Acoustic 1'
Gtr VI (Eb Ab Db Gb Bb Eb) - 'Steel Acoustic 2'

   Intro
    Q=64
   4/4
    Gtr I
    Q  H.            H.          E E
||-----0-----------|------------------||
||o----0-----------|-----------------o||
||-----------------|------------------||
||--2--------------|-2-----------3-3--||
||o-2--------------|-2-----------3-3-o||
||--0--------------|-0-----------1-1--||
|   W
|
|   Gtr II
|                            ~~~
|   H      Q  S E.   H      +H
||-----------------|------------------||
||o----------------|-----------------o||
||-----------------|------------------||
||--------------2--|------------------||
||o-----------2----|-1b2r===(1)------o||
||-----------------|------------------||


    Q        H.            H.          E E
||-----------0-----------|------------------||
||o----------0-----------|-----------------o||
||-----------------------|------------------||
||--2--------------------|-2-----------3-3--||
||o-2--------------------|-2-----------3-3-o||
||--0--------------------|-0-----------1-1--||
|   W
|
|   Gtr III
|         ~~~~~~
|   S S S S +H.            W
||-----------------------|------------------||
||o----------------------|-----------------o||
||-----------------------|------------------||
||-----------------------|------------------||
||o-----3-2-(2)----------|-----------------o||
||--0-1------------------|------------------||
|
|   Gtr II
|                                  ~~~
|   H            Q  S E.   H      +H
||-----------------------|------------------||
||o----------------------|-----------------o||
||-----------------------|------------------||
||--------------------2--|------------------||
||o-----------------2----|-1b2r===(1)------o||
||-----------------------|------------------||


   Q            H.              H.            E E
|---------------0------------|--------------------|
|---------------0------------|--------------------|
|----------------------------|--------------------|
|--2-------------------------|--2-------------3-3-|
|--2-------------------------|--2-------------3-3-|
|--0-------------------------|--0-------------1-1-|
|  W
|
| Gtr IV
|           ~~~~~~~                       ~~~~
|  S  S  S  S  +H      S  E.    H        +H
|----------------------------|--------------------|
|------------------------17--|--------------------|
|----14-17-16-(16)----16-----|-15b16r===(15)------|
|-15-------------------------|--------------------|
|----------------------------|--------------------|
|----------------------------|--------------------|
|
| Gtr III
|           ~~~~~~~                       ~~~~
|  S  S  S  S  +H      S  E.    H        +H
|----------------------------|--------------------|
|----------------------------|--------------------|
|----------------------------|--------------------|
|-------------------------2--|--------------------|
|--------3--2--(2)-----2-----|--1b2r=====(1)------|
|--0--1----------------------|--------------------|


   Q            H.              H.            S S E
|---------------0------------|----------------------||
|---------------0------------|----------------------||
|----------------------------|----------------------||
|--2-------------------------|--2-------------3-3---||
|--2-------------------------|--2-------------3-3---||
|--0-------------------------|--0-------------1-1---||
|  W
|
|           ~~~~~~~                       ~~~~
|  S  S  S  S  +H      S  E.    H        +H
|----------------------------|----------------------||
|------------------------17--|----------------------||
|----14-17-16-(16)----16-----|-15b16r===(15)--------||
|-15-------------------------|----------------------||
|----------------------------|----------------------||
|----------------------------|----------------------||
|
|           ~~~~~~~                       ~~~~
|  S  S  S  S  +H      S  E.    H        +H
|----------------------------|----------------------||
|----------------------------|----------------------||
|----------------------------|----------------------||
|-------------------------2--|----------------------||
|--------3--2--(2)-----2-----|--1b2r=====(1)--------||
|--0--1----------------------|----------------------||


  E5
  Gtr I
  W                                 +W
  |                                  |
  /                                  /

  Gtrs V, VI
  S S S S S S S S S S S S S S S S    S S S S S S S S S S S S S S S S
|-------0---------------0---------|--------0---------------0-------0-|
|-----0---0-----------0---0-------|------0---0-----------0-------0---|
|---3-------3---3---3-------3---3-|----3-------3---3---3-------3-----|
|-2-----------2---2-----------2---|--3-----------3-------------------|
|---------------------------------|------------------3-------2-------|
|---------------------------------|----------------------------------|


  +W                                 +W
   |                                  |
   /                                  /

   S S S S S S S S S S S S S S S S    S S S S S S S S S S S S S S S S
|--------0---------------0---------|--------0---------------0-------0-|
|------0---0-----------0---0-------|------0---0-----------0-------0---|
|----3-------3---3---3-------3---3-|----3-------3---3---3-------3-----|
|--2-----------2---2-----------2---|--3-----------3-------------------|
|----------------------------------|------------------3-------2-------|
|----------------------------------|----------------------------------|


    S S S S S S S S S S S S S S S S   S S S S S S S S S S S S S S S S
||--------0---------------0---------|-------0---------------0-------0---||
||o-----0---0-----------0---0-------|-----0---0-----------0-------0----o||
||----3-------3---3---3-------3---3-|---3-------3---3---3-------3-------||
||--2-----------2---2-----------2---|-3-----------3---------------------||
||o---------------------------------|-----------------3-------2--------o||
||----------------------------------|-----------------------------------||


  Gtr III
  W                                 H               Q       Q
|---------------------------------|---------------------------------|
|---------------------------------|---------------------------------|
|---------------------------------|---------------------------------|
|---------------------------------|-3---------------5-------4-------|
|-2-------------------------------|-3---------------3-------2-------|
|-0-------------------------------|-1---------------3-------2-------|
|
| Gtrs V, VI
| S S S S S S S S S S S S S S S S   S S S S S S S S S S S S S S S S
|-------0---------------0---------|-------0---------------0-------0-|
|-----0---0-----------0---0-------|-----0---0-----------0-------0---|
|---3-------3---3---3-------3---3-|---3-------3---3---3-------3-----|
|-2-----------2---2-----------2---|-3-----------3-------------------|
|---------------------------------|-----------------3-------2-------|
|---------------------------------|---------------------------------|


  W                                 H               Q       Q
|---------------------------------|---------------------------------|
|---------------------------------|---------------------------------|
|---------------------------------|---------------------------------|
|-2-------------------------------|-3---------------5-------4-------|
|-2-------------------------------|-3---------------3-------2-------|
|-0-------------------------------|-1---------------3-------2-------|
|
| S S S S S S S S S S S S S S S S   S S S S S S S S S S S S S S S S
|-------0---------------0---------|-------0---------------0-------0-|
|-----0---0-----------0---0-------|-----0---0-----------0-------0---|
|---3-------3---3---3-------3---3-|---3-------3---3---3-------3-----|
|-2-----------2---2-----------2---|-3-----------3-------------------|
|---------------------------------|-----------------3-------2-------|
|---------------------------------|---------------------------------|


     E   S S S S S S +S  S S S S S S S
||-------------------------------------|
||o------------------------------------|
||--/9---9-9-9-9-9-9-(9)-9-9-9-9-9-9-9-|
||--/9---9-9-9-9-9-9-(9)-9-9-9-9-9-9-9-|
||o-/7---7-7-7-7-7-7-(7)-7-7-7-7-7-7-7-|
||-------------------------------------|
|
|    S S S S S S S S  S  S S S S S S S
||---------0-----------------0---------|
||o------0---0-------------0---0-------|
||-----3-------3---3-----3-------3---3-|
||---2-----------2----2------------2---|
||o------------------------------------|
||-------------------------------------|


   E    S  S  S  S  E   Q       Q
|-----------------------------------------||
|----------------------------------------o||
|-10---10-10-10-10-10---------------------||
|-10---10-10-10-10-10---------------------||
|--8----8--8--8--8--8---3-------2--------o||
|-----------------------3-------2---------||
|
|  S S  S  S  S  S  S S S S S S S S S S
|----------0------------------0-------0---||
|-------0-----0-------------0-------0----o||
|----3-----------3----3---3-------3-------||
|--3----------------3---------------------||
|-----------------------3-------2--------o||
|-----------------------------------------||


   Pre-Verse
    Q=152
    Gtrs II, III
    PM--------------------|   PM|   PM
    E E E E E E E E   E E E E E E E E  7x
||------------------|------------------||
||o-----------------|-----------------o||
||------------------|------------------||
||------------------|-------2-----1----||
||o-----------------|-------2-----1---o||
||--0-2-3-0-2-3-5-0-|-2-3-0---3-0---2--||


  PM----------------------|
  E E E E E E E E   E E E E Q  Q
|-----------------|---------------||
|-----------------|---------------||
|-----------------|---------------||
|-----------------|---------6--5--||
|-----------------|---------6--5--||
|-0-2-3-0-2-3-5-0-|-2-3-0-2-4--3--||


      PM|     PM----|     PM|     PM----|
    E S S E E E E E E   E S S E E E E E E
||--------------------|-------------------|
||o-------------------|-------------------|
||--------------------|-------------------|
||--------------------|-------------------|
||o-2-----2-1---------|-2-----2-2---------|
||--0-0-0-0-0-0-0-0-0-|-0-0-0-0-1-0-0-0-0-|


    PM|     PM----|     PM|   PM|
  E S S E E E E E E   E S S E S S Q  Q
|-------------------|-------------------|
|-------------------|-------------------|
|-------------------|-------------------|
|-------------------|----------------1--|
|-2-----2-1---------|-2-----2-----3--1--|
|-0-0-0-0-0-0-0-0-0-|-0-0-0-0-0-0-3-----|


    PM|     PM----|     PM|     PM----|
  E S S E E E E E E   E S S E E E E E E
|-------------------|--------------------|
|-------------------|--------------------|
|-------------------|--------------------|
|-------------------|--------------------|
|-2-----2-1---------|-2-----2-2----------|
|-0-0-0-0-0-0-0-0-0-|-0-0-0-0-1-0-0-0-0--|


    PM|     PM----|     PM|   PM|
  E S S E E E E E E   E S S E S S Q  Q
|-------------------|-------------------||
|-------------------|-------------------||
|-------------------|-------------------||
|-------------------|-------------6--5--||
|-2-----2-1---------|-2-----2-----6--5--||
|-0-0-0-0-0-0-0-0-0-|-0-0-0-0-0-x-4--3--||


 Verse 1,2 & 3
  $
    PM|     PM----|     PM|     PM----|
  E S S E E E E E E   E S S E E E E E E
|-------------------|-------------------|
|-------------------|-------------------|
|-------------------|-------------------|
|-------------------|-------------------|
|-2-----2-1---------|-2-----2-2---------|
|-0-0-0-0-0-0-0-0-0-|-0-0-0-0-1-0-0-0-0-|


    PM|     PM----|     PM|   PM|
  E S S E E E E E E   E S S E S S Q  Q
|-------------------|-------------------|
|-------------------|-------------------|
|-------------------|-------------------|
|-------------------|----------------1--|
|-2-----2-1---------|-2-----2-----3--1--|
|-0-0-0-0-0-0-0-0-0-|-0-0-0-0-0-0-3-----|


    PM|     PM----|     PM|     PM----|
  E S S E E E E E E   E S S E E E E E E
|-------------------|--------------------|
|-------------------|--------------------|
|-------------------|--------------------|
|-------------------|--------------------|
|-2-----2-1---------|-2-----2-2----------|
|-0-0-0-0-0-0-0-0-0-|-0-0-0-0-1-0-0-0-0--|


    PM|     PM----|     PM|   PM|
  E S S E E E E E E   E S S E S S Q  Q
|-------------------|-------------------||
|-------------------|-------------------||
|-------------------|-------------------||
|-------------------|-------------6--5--||
|-2-----2-1---------|-2-----2-----6--5--||
|-0-0-0-0-0-0-0-0-0-|-0-0-0-0-0-x-4--3--||


 Chorus
  W          W
|----------|------|
|----------|------|
|----------|------|
|-2--------|-5----|
|-2--------|-5----|
|-0--------|-3----|


  W          +H     Q  Q    W          W
|----------|--------------|----------|------|
|----------|--------------|----------|------|
|----------|--------------|----------|------|
|-4--------|-(4)----5--4--|-2--------|-3----|
|-4--------|-(4)----5--4--|-2--------|-3----|
|-2--------|-(2)----3--2--|-0--------|-1----|


  W          +H     Q  Q    W          W
|----------|--------------|----------|------|
|----------|--------------|----------|------|
|----------|--------------|----------|------|
|-6--------|-(6)----5--4--|-2--------|-5----|
|-6--------|-(6)----5--4--|-2--------|-5----|
|-4--------|-(4)----3--2--|-0--------|-3----|


  W          +H     Q  Q
|----------|--------------|
|----------|--------------|
|----------|--------------|
|-4--------|-(4)----5--4--|
|-4--------|-(4)----5--4--|
|-2--------|-(2)----3--2--|


                                  1.
To Coda
  W          W          W          +H     Q  Q
|----------|----------|----------|---------------||
|----------|----------|----------|--------------o||
|----------|----------|----------|---------------||
|-2--------|-3--------|-6--------|-(6)----5--4---||
|-2--------|-3--------|-6--------|-(6)----5--4--o||
|-0--------|-1--------|-4--------|-(4)----3--2---||


  2.
  H    Q  Q
|--------------||
|--------------||
|--------------||
|-6----5--4----||
|-6----5--4----||
|-4----3--2----||


   Guitar Break
    Gtrs II, III
    PM--------------------|   PM|   PM
    E E E E E E E E   E E E E E E E E  3x
||------------------|------------------||
||o-----------------|-----------------o||
||------------------|------------------||
||------------------|-------2-----1----||
||o-----------------|-------2-----1---o||
||--0-2-3-0-2-3-5-0-|-2-3-0---3-0---2--||


                                    Guitar Solo
  Gtr III
  PM----------------------|                   PM--|      PM------------|
  E E E E E E E E   E E E E Q  Q      E       S   S E E  E       E   E E
|-----------------|---------------||-------------------------------------|
|-----------------|---------------||-------------------------------------|
|-----------------|---------------||-------------------------------------|
|-----------------|---------------||------------------1------------------|
|-----------------|---------6--5--||--3-------------3-1------------------|
|-0-2-3-0-2-3-5-0-|-2-3-0-2-4--3--||--1-------1---1-1----1-------1---1-1-|
|
| Gtr II
| PM----------------------|
| E E E E E E E E   E E E E Q  Q      E      +Q.         E      +Q.
|-----------------|---------------||-18b20==(18)r-------18b20==(18)r-----|
|-----------------|---------------||-------------------------------------|
|-----------------|---------------||-------------------------------------|
|-----------------|---------------||-------------------------------------|
|-----------------|---------6--5--||-------------------------------------|
|-0-2-3-0-2-3-5-0-|-2-3-0-2-4--3--||-------------------------------------|


           PM-|       PM--------|
   E       S  S E E   E  E   E  E
|-----------------------------------|
|-----------------------------------|
|-----------------------------------|
|-----------------1-----------------|
|--3------------3-1-----------------|
|--1-------1--1-1-----1--1---1--1---|
|
|  E      +Q.        +Q     +Q
|-18b20==(18)-------(18)---(18)-----|
|-----------------------------------|
|-----------------------------------|
|-----------------------------------|
|-----------------------------------|
|-----------------------------------|


       PM|          PM--------|                   PM----|                PM------|
    E  S S   E  E   E  E   E    E         E       S     S   E       E    E   E E E
|-------------------------------------|--------------------------------------------|
|-------------------------------------|--------------------------------------------|
|-------------------------------------|--------------------------------------------|
|---------------0---------------------|--------------------------------------------|
|---3--------3--0---------------------|---3-----------------3-------4--------------|
|---1--1-1---1------1--1---1----1-----|---1-------1-----1---1-------4----1---1-1-1-|
|
|                               ~~~~~~~~~~~~~~~~~                        ~~~~~
|  +Q       +Q     +Q     +E   +E        +E      +E        +E      +E   +Q.      E
|-(18)-----(18)---(18)r==(18)-(18)b20r|=(18)b20r(18)b20r==(18)b20r(18)-(18)\-------|
|-------------------------------------|------------------------------------------0-|
|-------------------------------------|--------------------------------------------|
|-------------------------------------|--------------------------------------------|
|-------------------------------------|--------------------------------------------|
|-------------------------------------|--------------------------------------------|


      PM|      PM-------|             PM|     PM--------|
   E  S S E E  E  E  E    E       E   S S E E E E   E   E
|-----------------------------|---------------------------|
|-----------------------------|---------------------------|
|-----------------------------|---------------------------|
|-----------1-----------------|-------------1-------------|
|--3------3-1-----------------|---3-------3-1-------------|
|--1--1-1-1----1--1--1----1---|---1---1-1-1---1-1---1---1-|
|
|  \1                \1   /       |
| +H          +Q     E   +E      +H.               +Q
|-----------------------------|---------------------------|
|-(0)---------(0)---<5>-(<5>)-|-(<5>)-------------(<5>)---|
|-----------------------------|---------------------------|
|-----------------------------|---------------------------|
|-----------------------------|---------------------------|
|-----------------------------|---------------------------|


    PM|              PM---------------|
  E S S  E     E     E     E     E     E
|------------------------------------------|
|------------------------------------------|
|------------------------------------------|
|--------------0---------------------------|
|-3------3-----0---------------------------|
|-1-1-1--1-----------1-----1-----1-----1---|
|
|        PM---------------------|
| Q      S  S  S  S  S  S  S  S  S  S  S S
|------------------------------------------|
|------------------------------------------|
|----------------------------------16-18---|
|-------------------------16-18-19---------|
|----------------16-17-19------------------|
|-x-----16-17-19---------------------------|


         PM|               PM----------------------------|
   E     S  S  E     E     E    E            E             E
|---------------------------------------------------------------|
|---------------------------------------------------------------|
|---------------------------------------------------------------|
|---------------------------------------------------------------|
|--3-----------3-----4------------------------------------------|
|--1-----1--1--1-----4-----1----1------------1-------------1----|
|
|                          ~~~~~~~~~~~~~~~~
|  S  S  S  S  S  S  S  S  Q        a       +S   +S       +E
|-------------------19-21-22b24r==(22)b24==(22)r(22)b24==(22)r\-|
|----------19-21-22---------------------------------------------|
|-18-19-21------------------------------------------------------|
|---------------------------------------------------------------|
|---------------------------------------------------------------|
|---------------------------------------------------------------|


            PM---|                 PM---------------|
   E        S    S     E     E     E     E     E     E
|---------------------------------------------------------|
|---------------------------------------------------------|
|---------------------------------------------------------|
|----------------------------1----------------------------|
|--3-------------------3-----1----------------------------|
|--1--------1----1-----1-----------1-----1-----1-----1----|
|
|  |--3--|  |---3---|
|  S  S  S  S  S    S  S  S  S  S  S  S  S  S  S  S  S  S
|-18p17p15-18p17p==15-18-17-15----------------------------|
|------------------------------18-17-15-------------------|
|---------------------------------------17-15-14----15-14-|
|------------------------------------------------17-------|
|---------------------------------------------------------|
|---------------------------------------------------------|


         PM|               PM-------------|
   E     S  S  E     E     E     E     E  E
|-------------------------------------------------|
|-------------------------------------------------|
|-------------------------------------------------|
|--------------------1----------------------------|
|--3-----------3-----1----------------------------|
|--1-----1--1--1-----------1-----1-----1--1-------|
|
|  S  S  S  S  S  S  S  S  S  S  S  S  E.    +S
|-------------------------------------------------|
|-------------------------------------------------|
|-15-14-------------------------------------------|
|-------17-15-14----------------------------------|
|----------------17-15-13-------13----------------|
|-------------------------17-15----17-13----(13)\-|

[ Tab from: http://www.guitaretab.com/s/slayer/17457.html ]
         PM|               PM---------------|
   E     S  S  E     E     E     E     E     E
|-------------------------------------------------|
|-------------------------------------------------|
|-------------------------------------------------|
|--------------------0----------------------------|
|--3-----------3-----0----------------------------|
|--1-----1--1--1-----------1-----1-----1-----1----|
|
|  PM----------------------------------------------
|  S  S  S  S  S  S  S  S  S  S  S  S  S  S  S  S
|-------------------------------------------------|
|-------------------------------------------------|
|-------------------------------------------10-12-|
|-------------------10-12----------10-12-14-------|
|----------10-12-13-------10-12-13----------------|
|-10-12-13----------------------------------------|


         PM|           PM---------|           PM|          PM--------------|
   E     S  S  E     E E E   E    E     E     S S   E  E   E     E     E   E
|-----------------------------------|------------------------------------------|
|-----------------------------------|------------------------------------------|
|-----------------------------------|------------------------------------------|
|-----------------------------------|------------------1-----------------------|
|--3-----------3-----4--------------|---3-----------3--1-----------------------|
|--1-----1--1--1-----4-1-1---1----1-|---1-----1-1---1------1-----1-----1---1---|
|
|                                       /1.5\              /1\         /1\
|----------|
|  S  S  S  S  H            +Q          Q          +Q      E    +E     Q
|-----------------------------------|------------------------------------------|
|-----------------------------------|------------------------------------------|
|----------10-12b13========(12)r\---|-/10---------(10)---/13---(13)\-/15-------|
|-10-12-14--------------------------|------------------------------------------|
|-----------------------------------|------------------------------------------|
|-----------------------------------|------------------------------------------|


  Gtr I
    W                                          W
|-------------------------------------------|----------------------------|
|-------------------------------------------|----------------------------|
|-------------------------------------------|----------------------------|
|-------------------------------------------|----------------------------|
|-------------------------------------------|----------------------------|
|-------------------------------------------|----------------------------|
|
| Gtr III
|       PM|                 PM----------|             PM-|       PM----|
|   E   S S   E       E     E   E   E    E     E      S  S  E  E E E E E
|-------------------------------------------|----------------------------|
|-------------------------------------------|----------------------------|
|-------------------------------------------|----------------------------|
|---------------------1---------------------|------------------0---------|
|---3---------3-------1---------------------|--3------------3--0---------|
|---1---1-1---1-------------1---1---1----1--|--1------1--1--1----1-1-1-1-|
|
| Gtr II
|             /1.5\         /1\                \2.5_________/
|  +Q         E      +E     Q      +E    E    +E     +E    +H.
|-------------------------------------------|----------------------------|
|-------------------------------------------|----------------------------|
|-(15)\-----/17-----(17)\-/20-----(20)\-[0]-|-(0)----(0)---(0)-----------|
|-------------------------------------------|----------------------------|
|-------------------------------------------|----------------------------|
|-------------------------------------------|----------------------------|


   W                       W
|-----------------------|---------------------|
|-----------------------|---------------------|
|-----------------------|---------------------|
|-----------------------|--2------------------|
|-----------------------|--2------------------|
|-----------------------|--0------------------|
|
|     PM|      PM---------------|
|  E  S S E E  E  E E E    E  E E E E  E E E
|-----------------------|---------------------|
|-----------------------|------------------8--|
|-----------------------|----------------9----|
|-----------------------|---------5-7-10------|
|--3------3-4-----------|-------7-------------|
|--1--1-1-1-4--1--1-1-1-|--5--8---------------|
|
|                          \7
| +H          +H          +W
|-----------------------|---------------------|
|-----------------------|---------------------|
|-(0)---------(0)-------|-(0)-----------------|
|-----------------------|---------------------|
|-----------------------|---------------------|
|-----------------------|---------------------|


   W                               W
|------------------------------|---------------------------------|
|------------------------------|---------------------------------|
|------------------------------|---------------------------------|
|--5---------------------------|---4-----------------------------|
|--5---------------------------|---4-----------------------------|
|--3---------------------------|---2-----------------------------|
|
|                                                 ~~  T     T
|  E   E  E  E  a  Q.    E        +Q    +E   +E   Q   S  S  S  S
|--------12-15-15s17----17b19==|=(17)--(17)r(17)-17--19p15-19p15-|
|-10--13-----------------------|---------------------------------|
|------------------------------|---------------------------------|
|------------------------------|---------------------------------|
|------------------------------|---------------------------------|
|------------------------------|---------------------------------|
|
|  \7
| +W                               W
|------------------------------|---------------------------------|
|------------------------------|---------------------------------|
|-(0)--------------------------|---------------------------------|
|------------------------------|---------------------------------|
|------------------------------|---------------------------------|
|------------------------------|---------------------------------|


   W
|-----------------------------------------------------|
|-----------------------------------------------------|
|-----------------------------------------------------|
|-----------------------------------------------------|
|-----------------------------------------------------|
|-----------------------------------------------------|
|
|  T        T     T           ~~~~~~~~~~
|  S  S  S  S  S  S  S  S     S     +E.  +S   S  S  S
|-19p15p12-15p12-15p12--------------------------------|
|----------------------15b17-17b20r(17)-(17)p15-13-15-|
|-----------------------------------------------------|
|-----------------------------------------------------|
|-----------------------------------------------------|
|-----------------------------------------------------|
|
|  H                          Q           Q
|-----------------------------------------------------|
|-----------------------------------------------------|
|-----------------------------------------------------|
|-----------------------------------------------------|
|-----------------------------5-----------4-----------|
|-----------------------------3-----------2-----------|


  Gtr III
                 ~~      PM------------|
   Q.      S  S  H       S S  S S  S S  S S S S S S S S S S
|---------------------|-------------------------------------|
|-15b17---13p11-------|-----------------------------------8-|
|---------------13----|---------------------------7-9-7-9---|
|---------------------|-------------------7-9-7-9-----------|
|---------------------|---------7-10-7-10-------------------|
|---------------------|-10-7-10-----------------------------|
|
| Gtr II
|  W                     W
|---------------------|-------------------------------------|
|---------------------|-------------------------------------|
|---------------------|-------------------------------------|
|--2------------------|--3----------------------------------|
|--2------------------|--3----------------------------------|
|--0------------------|--1----------------------------------|


                /0.5\              /1\
   Q      +S   +E      +S   +Q     E    +E
|--------------------------------------------|
|-10b12--(10)-(10)----(10)-(10)--/10---(10)\-|
|--------------------------------------------|
|--------------------------------------------|
|--------------------------------------------|
|--------------------------------------------|
|
|  W
|--------------------------------------------|
|--------------------------------------------|
|--------------------------------------------|
|--6-----------------------------------------|
|--6-----------------------------------------|
|--4-----------------------------------------|


                  \0.5/   \0.5/   \0.5/   \0.5/
   PM
   E   E   +E    +S      +S      +E      +E      +Q
|------------------------------------------------------|
|--0--<5>-(<5>)-(<5>)---(<5>)---(<5>)---(<5>)---(<5>)--|
|------------------------------------------------------|
|------------------------------------------------------|
|------------------------------------------------------|
|------------------------------------------------------|
|
| +H                              Q               Q
|------------------------------------------------------|
|------------------------------------------------------|
|------------------------------------------------------|
|-(6)-----------------------------5---------------4----|
|-(6)-----------------------------5---------------4----|
|-(4)-----------------------------3---------------2----|


   T        T          T          T
            |-3-|      |-3-|      |-3-|
   S S S S  S S S S S  S S S S S  S S S S S
|-------------------------------------------|
|-12p5h8p5-13p8p5h8p5-12p8p5h8p5-13p8p5h8p5-|
|-------------------------------------------|
|-------------------------------------------|
|-------------------------------------------|
|-------------------------------------------|
|
|  W
|-------------------------------------------|
|-------------------------------------------|
|-------------------------------------------|
|--2----------------------------------------|
|--2----------------------------------------|
|--0----------------------------------------|


                                                                    \0.5___
   T          T          T      T
   |-3-|      |-3-|      |-3-|
   S S S S S  S S S S S  S S S  S S Q     Q      +E   E    +Q   +E  E
|--------------------------------------|----------------------------------|
|-12p8p5h8p5-13p8p5h8p5-12p8p5-12p8p5--|-[5]b6r=([5])---------------------|
|--------------------------------------|--------------5b7==(5)r=(5)-0-----|
|--------------------------------------|----------------------------------|
|--------------------------------------|----------------------------------|
|--------------------------------------|----------------------------------|
|
|  W                                      W
|--------------------------------------|----------------------------------|
|--------------------------------------|----------------------------------|
|--------------------------------------|----------------------------------|
|--5-----------------------------------|--4-------------------------------|
|--5-----------------------------------|--4-------------------------------|
|--3-----------------------------------|--2-------------------------------|


        /         \0.5___/   \0.5___/
  +Q   +E  +E    +E     +S  +S     +Q
|-----------------------------------------|
|-----------------------------------------|
|-(0)--(0)-(0)---(0)----(0)-(0)----(0)----|
|-----------------------------------------|
|-----------------------------------------|
|-----------------------------------------|
|
| +H           Q         Q
|-----------------------------------------|
|-----------------------------------------|
|-----------------------------------------|
|-(4)----------5---------4----------------|
|-(4)----------5---------4----------------|
|-(2)----------3---------2----------------|


   T          T          T          T
   T T S S S  T T S S S  T T S S S  T T S S S
|-12p8p5h8p5-13p8p5h8p5-12p8p5h8p5-13p8p5h8p5-|
|---------------------------------------------|
|---------------------------------------------|
|---------------------------------------------|
|---------------------------------------------|
|---------------------------------------------|
|
|  W
|---------------------------------------------|
|---------------------------------------------|
|---------------------------------------------|
|--2------------------------------------------|
|--2------------------------------------------|
|--0------------------------------------------|


   T          T          T          T
              |-3-|      |-3-|      |-3-|
   T T S S S  S S S S S  S S S S S  S S S S S
|-12p8p5h8p5-13p8p5h8p5-12p8p5h8p5-13p8p5h8p5-|
|---------------------------------------------|
|---------------------------------------------|
|---------------------------------------------|
|---------------------------------------------|
|---------------------------------------------|
|
|  W
|---------------------------------------------|
|---------------------------------------------|
|---------------------------------------------|
|--3------------------------------------------|
|--3------------------------------------------|
|--1------------------------------------------|


   T        T        T         T          T          T
   |-3-| |-3--| |-3--| |-3--|  |-3--|  |-3--|  |--3--|  |--3--|
   S S S S  S S S S  S S S  S  S S  S  S  S S  S  S  S  S  S  S
|-10p5h7h8-11p6h8h9-12p7h9h10-13p8h10h11-14p9h11h12-15p10h12h13-|
|---------------------------------------------------------------|
|---------------------------------------------------------------|
|---------------------------------------------------------------|
|---------------------------------------------------------------|
|---------------------------------------------------------------|
|
|  W
|---------------------------------------------------------------|
|---------------------------------------------------------------|
|---------------------------------------------------------------|
|--6------------------------------------------------------------|
|--6------------------------------------------------------------|
|--4------------------------------------------------------------|


   T            T           T           T           T           T           T
   |--3---|  |--3--|  |--3--|  |--3--|
   S   S  S  S  S  S  S  S  S  S  S  S  T  T  T  T  T  T  T  T  T  T  T  T  T  T  T  T
|-16p=11h13h14-17p12h14h15-18p13h15h16-19p14h16h17-20p15h17h18-21p16h18h19-22p17h19h20--|
|---------------------------------------------------------------------------------------|
|---------------------------------------------------------------------------------------|
|---------------------------------------------------------------------------------------|
|---------------------------------------------------------------------------------------|
|---------------------------------------------------------------------------------------|
|
| +H                                    Q                       Q
|---------------------------------------------------------------------------------------|
|---------------------------------------------------------------------------------------|
|---------------------------------------------------------------------------------------|
|-(6)-----------------------------------5-----------------------4-----------------------|
|-(6)-----------------------------------5-----------------------4-----------------------|
|-(4)-----------------------------------3-----------------------2-----------------------|


                             D.S. al Coda
   T
   a  Q    Q   H         W
|-23p18\---------------|------------------||
|----------------------|------------------||
|----------------------|------------------||
|----------------------|------------------||
|----------------------|------------------||
|----------------------|------------------||
|
|     PM---------------------|   PM|   PM
|     E  E E E E E E E   E E E E E E E E
|----------------------|------------------||
|----------------------|------------------||
|----------------------|------------------||
|----------------------|-------2-----1----||
|----------------------|-------2-----1----||
|-----0--2-3-0-2-3-5-0-|-2-3-0---3-0---2--||


  &
  W          W          +H     Q  Q
|----------|----------|--------------||
|----------|----------|--------------||
|----------|----------|--------------||
|-3--------|----------|--------------||
|-3--------|-6--------|-(6)----5--4--||
|-1--------|-4--------|-(4)----3--2--||


 Outro
  Q=64
  Gtr III
  W
|---------------------------------|
|---------------------------------|
|---------------------------------|
|---------------------------------|
|-2-------------------------------|
|-0-------------------------------|
|
| Gtrs V, VI
| S S S S S S S S S S S S S S S S
|-------0---------------0---------|
|-----0---0-----------0---0-------|
|---3-------3---3---3-------3---3-|
|-2-----------2---2-----------2---|
|---------------------------------|
|---------------------------------|


  H               Q       Q         W
|---------------------------------|---------------------------------|
|---------------------------------|---------------------------------|
|-----------------5-------4-------|---------------------------------|
|-----------------5-------4-------|-2-------------------------------|
|-3---------------3-------2-------|-2-------------------------------|
|-1---------------3-------2-------|-0-------------------------------|
|
| S S S S S S S S S S S S S S S S   S S S S S S S S S S S S S S S S
|-------0---------------0-------0-|-------0---------------0---------|
|-----0---0-----------0-------0---|-----0---0-----------0---0-------|
|---3-------3---3---3-------3-----|---3-------3---3---3-------3---3-|
|-3-----------3-------------------|-2-----------2---2-----------2---|
|-----------------3-------2-------|---------------------------------|
|---------------------------------|---------------------------------|


  H               Q       Q         E   S S +S  S S S S S S S +S  S S S
|---------------------------------|-------------------------------------|
|---------------------------------|-------------------------------------|
|-----------------5-------4-------|-9---9-9-(9)-9-9-9-9-9-9-9-(9)-9-9-9-|
|-3---------------5-------4-------|-------------------------------------|
|-3---------------3-------2-------|-7---7-7-(7)-7-7-7-7-7-7-7-(7)-7-7-7-|
|-1---------------3-------2-------|-------------------------------------|
|
| S S S S S S S S S S S S S S S S   S S S S  S  S S S S S S S  S  S S S
|-------0---------------0-------0-|-------0-----------------0-----------|
|-----0---0-----------0-------0---|-----0----0------------0----0--------|
|---3-------3---3---3-------3-----|---3---------3---3---3---------3---3-|
|-3-----------3-------------------|-2-------------2---2-------------2---|
|-----------------3-------2-------|-------------------------------------|
|---------------------------------|-------------------------------------|


   E    S  S  S  S  E    Q       Q         E   S S +S  S S S E   S S E   E
|----------------------------------------|-----------------------------------|
|----------------------------------------|-----------------------------------|
|-10---10-10-10-10-10\-------------------|-9---9-9-(9)-9-9-9-9---9-9-9---9---|
|----------------------------------------|-----------------------------------|
|--8----8--8--8--8--8\---3-------2-------|-7---7-7-(7)-7-7-7-7---7-7-7---7---|
|------------------------3-------2-------|-0---------------------------------|
|
|  S S  S  S  S  S  S  S S S S S S S S S   S S S S  S  S S S S S S S S S S S
|----------0-------------------0-------0-|-------0-----------------0---------|
|-------0-----0--------------0-------0---|-----0----0------------0---0-------|
|----3-----------3-----3---3-------3-----|---3---------3---3---3-------3---3-|
|--3----------------3--------------------|-2-------------2---2-----------2---|
|------------------------3-------2-------|-----------------------------------|
|----------------------------------------|-----------------------------------|


   H               Q       Q         W          +W
|----------------------------------|----------|--------|
|----------------------------------|----------|--------|
|-10---------------5-------4-------|----------|--------|
|------------------5-------4-------|----------|--------|
|--8---------------3-------2-------|-2--------|-(2)----|
|------------------3-------2-------|-0--------|-(0)----|
|
|                                    Gtr II
|  S S S S S S S S S S S S S S S S   W          +W
|--------0---------------0-------0-|----------|--------|
|------0---0-----------0-------0---|----------|--------|
|----3-------3---3---3-------3-----|----------|--------|
|--3-----------3-------------------|----------|--------|
|------------------3-------2-------|-2--------|-(2)----|
|----------------------------------|-0--------|-(0)----|


  +W           +W
|------------|--------*|
|------------|--------*|
|------------|--------*|
|------------|--------*|
|-(2)--------|-(2)----*|
|-(0)--------|-(0)----*|
|
|  \7
|  W           +W
|------------|--------*|
|------------|--------*|
|------------|--------*|
|------------|--------*|
|--2---------|-(2)----*|
|--0---------|-(0)----*|



Duration Legend
---------------
W - whole; H - half; Q - quarter; E - 8th; S - 16th; T - 32nd; X - 64th; a - acciaccatura
+ - note tied to previous; . - note dotted; .. - note double dotted
Uncapitalized letters represent notes that are staccato (1/2 duration)
Irregular groupings are notated above the duration line
Duration letters will always appear directly above the note/fret number it represents the
duration for.  Duration letters with no fret number below them represent rests.  Multi-
bar rests are notated in the form Wxn, where n is the number of bars to rest for.  Low
melody durations appear below the staff

Tablature Legend
----------------
 h   - hammer-on
 p   - pull-off
 b   - bend
 pb  - pre-bend
 r   - bend release (if no number after the r, then release immediately)
 /\  - slide into or out of (from/to "nowhere")
 s   - legato slide
 S   - shift slide
 - natural harmonic
[n]  - artificial harmonic
n(n) - tapped harmonic
 ~   - vibrato
 tr  - trill
 T   - tap
 TP  - trem. picking
 PM  - palm muting
\n/  - tremolo bar dip; n = amount to dip
 \n  - tremolo bar down
 n/  - tremolo bar up
/n\  - tremolo bar inverted dip
 =   - hold bend; also acts as connecting device for hammers/pulls
 <> - volume swell (louder/softer)
 x   - on rhythm slash represents muted slash
 o   - on rhythm slash represents single note slash

Misc Legend
-----------
 |  - bar
||  - double bar
||o - repeat start
o|| - repeat end
*|  - double bar (ending)
 :  - bar (freetime)
 $  - Segno
 &  - Coda
Tempo markers -  = BPM(8/16=s8/s16), where s8 = swing 8ths, s16 = swing 16ths

Related for Seasons In The Abyss tab
×
Best way to learn
"Seasons In The Abyss"