Guitaretab - guitar tabs
Song name
# A B C D E F G H I J K L M N O P Q R S T U V W X Y Z

Slayer - Spill The Blood tab

Folks this is the correct version of SPILL THE BLOOD!

SPILL THE BLOOD
 By SLAYER
 (Music & Lyrics: Hanneman)
 SOUTH OF HEAVEN (1988)
 

 Tabbed By Giddyup306

 Tuned Eb

Folks Slayer uses 3 guitars on this song in the studio recording.  


INTRO x4 (CLEAN) (ONLY KING IN LIVE PERFORMANCES)

|KING
|-----0-------0---|-----0-------0---|-----0-------0---|-----0-------0---|
|---0---0---0---0-|---0---0---0---0-|---0---0---0---0-|---0---0---0---0-|
|-4-------4-------|-3-------3-------|-----------------|-----------------|
|-----------------|-----------------|-4-------4-------|-5-------3-------|
|-----------------|-----------------|-----------------|-----------------|
|-----------------|-----------------|-----------------|-----------------|
|
|
|HANNEMAN
|-7-------7-------|-6-------6-------|-----------------|-----------------|
|---5---5---5---5-|---5---5---5---5-|-----5---7-------|-----5-------5---|
|-----4-------4---|-----4-------4---|---4---4---4---4-|---4---4---4---4-|
|-----------------|-----------------|-4-----------4---|-5-------3-------|
|-----------------|-----------------|-----------------|-----------------|
|-----------------|-----------------|-----------------|-----------------|




 RIFF 2 INTRO x2

|BOTH
|-----------------|-----------------|-----------------|-----------------|
|-----------------|-----------------|-----------------|-----------------|
|-----------------|-----------------|-----------------|-----------------|
|-4---------------|-3---------------|-----------------|-----------------|
|-2---------------|-1---------------|-4---------------|-5-------3-------|
|-----------------|-----------------|-2---------------|-3-------1-------|
|
|
|3RD GUITAR
|-----0-------0---|-----0-------0---|-----0-------0---|-----0-------0---|
|---0---0---0---0-|---0---0---0---0-|---0---0---0---0-|---0---0---0---0-|
|-4-------4-------|-3-------3-------|-----------------|-----------------|
|-----------------|-----------------|-4-------4-------|-5-------3-------|
|-----------------|-----------------|-----------------|-----------------|
|-----------------|-----------------|-----------------|-----------------|




 RIFF 3 BRIDGE x1

|BOTH x2
|---------------------------------------------------------------------|
|---------------------------------------------------------------------|
|-----------9-----8---------------------------------------6---5-------|
|-----910----10-----9---------8b^^----5-7-8-5-7-8---5-7-8---7---6b^^--|
|---7-------------------710-9-------5-------------5-------------------|
|-0-------0-----0-----0-----------------------------------------------|
  . .     .     .     . ... .       .             .



|KING
|---------------------------------------------------------------------|
|---------------------------------------------------------------------|
|-----------9-----8---------------------------------------6---5-------|
|-----910----10-----9---------8b^^----5-7-8-5-7-8---5-7-8---7---6b^^--|
|---7-------------------710-9-------5-------------5-------------------|
|-0-------0-----0-----0-----------------------------------------------|
| . .     .     .     . ... .       .             .
|
|HANNEMAN
|---------------------------------------------------------------------|
|---------------------------------------------------------------------|
|-----------9-----8-------------------------7-910---------6---5-------|
|-----910----10-----9---------8b^^----5-7-8---------5-7-8---7---6b^^--|
|---7-------------------710-9-------5-------------5-------------------|
|-0-------0-----0-----0-----------------------------------------------|
  . .     .     .     . ... .       .             .


|KING
|---------------------------------------------------------------------|
|---------------------------------------------------------------------|
|-----------9-----8-------------------------5-7-8---------6---5-------|
|-----910----10-----9---------8b^^----5-7-8---------5-7-8---7---6b^^--|
|---7-------------------710-9-------5-------------5-------------------|
|-0-------0-----0-----0-----------------------------------------------|
| . .     .     .     . ... .       .             .
|
|HANNEMAN
|---------------------------------------------------------------------|
|---------------------------------------------------------------------|
|-----------9-----8---------------------------------------6---5-------|
|-----910----10-----9---------8b^^----5-7-8-5-7-8---5-7-8---7---6b^^--|
|---7-------------------710-9-------5-------------5-------------------|
|-0-------0-----0-----0-----------------------------------------------|
  . .     .     .     . ... .       .             .



 FILL 1

|-----------------------------------|
|-----------------------------------|
|-----------------------------------|
|-----------------------------------|
|-5----------------3----------------|
|-3----------------1----------------|




 RIFF 4 VERSE x4

|-------------------------------------------------|
|-------------------------------------------------|
|-------------------------------------------------|
|-------------------------------------------------|
|-2--------3-----5-----3--2-----------------------|
|-0--0--0--1--0--3--0--1--0--0--0--0--0--0--0--0--|
     .  .     .     .        .  .  .  .  .  .  .


|-------------------------------------------------|
|-------------------------------------------------|
|-------------------------------------------------|
|-------------------------------------------------|
|-2--------3-----5-----3--2-----------------5h6^--|
|-0--0--0--1--0--3--0--1--0--0--0--0--5h6h7-------|
     .  .     .     .        .  .  .



 RIFF 5 CHORUS x1

|-------------------------------------------------|
|-------------------------------------------------|
|-------------------------------------------------|
|----------3-----2--------------------------------|
|----------3-----2--------------------------------|
|-2--2--2-----2-----2--4--5--2--2--2--5--4--2--4--|
  .  .  .     .     .  .  .  .  .  .  .  .  .  .


|KING
|-------------------------------------------------|
|-------------------------------------------------|
|-------------------------------------------------|
|-------------------------------------------5h6^--|
|-2--------3-----5-----3--2-----------5-6-7-------|
|-0--0--0--1--0--3--0--1--0--0--0--0--------------|
|    .  .     .     .        .  .  .
|
|HANNEMAN
|-------------------------------------------------|
|-------------------------------------------------|
|-------------------------------------------------|
|-------------------------------------------------|
|-2--------3-----5-----3--2-----------------5h6^--|
|-0--0--0--1--0--3--0--1--0--0--0--0--5h6h7-------|
     .  .     .     .        .  .  .


|-------------------------------------------------|
|-------------------------------------------------|
|-------------------------------------------------|
|----------3-----2--------------------------------|
|----------3-----2--------------------------------|
|-2--2--2-----2-----2--4--5--2--2--2--5--4--2--4--|
  .  .  .     .     .  .  .  .  .  .  .  .  .  .



 FILL 2

|KING
|-------------------------------------------------|
|-------------------------------------------------|
|-------------------------------------------------|
|-------------------------------------------------|
|-2--------3-----5-----3--2-----------------5h6^--|
|-0--0--0--1--0--3--0--1--0--0--0--0--5h6h7-------|
|    .  .     .     .        .  .  .
|
|HANNEMAN
|-------------------------------------------------|
|-------------------------------------------------|
|-------------------------------------------------|
|-------------------------------------------------|
|-2-----------------------------------2-----------|
|-0-----------------------------------0-----------|
                                       x


|KING
|-------------------------------------------------|
|-------------------------------------------------|
|-------------------------------------------------|
|-------------------------------------------------|
|-2--------3-----5-----3--2-----------------5h6^--|
|-0--0--0--1--0--3--0--1--0--0--0--0--5h6h7-------|
|    .  .     .     .        .  .  .
|
|HANNEMAN
|-------------------------------------------------|
|-------------------------------------------------|
|-------------------------------------------------|
|-------------------------------------------------|
|-2-------------------------12\\\\\\\\\\\\\\\\----|
|-0-------------------------12\\\\\\\\\\\\\\\\----|
   x



 RIFF 4 VERSE x4

 RIFF 5 CHORUS x1


 RIFF 6 INTERLUDE

|BOTH
|-----------------------------------------------|
|-----------------------------------------------|
|-----------------------------------------------|
|----------9-----8------------------------------|
|----------7-----6-----9-10--------------9--8^--|
|-0--0--0-----0-----0--7--8--0--0--9-10---------|
  .  .  .     .     .        .  .


|BOTH
|-----------------------------------------------|
|-----------------------------------------------|
|-----------------------------------------------|
|----------9-----8----------------------10--9^--|
|----------7-----6-----9-10--------9--8---------|
|-0--0--0-----0-----0--7--8--9-10---------------|
  .  .  .     .     .


|BOTH
|-----------------------------------------------|
|-----------------------------------------------|
|-----------------------------------------------|
|----------9-----8------------------------------|
|----------7-----6-----9-10--------------9--8^--|
|-0--0--0-----0-----0--7--8--0--0--9-10---------|
  .  .  .     .     .        .  .


|KING
|-----------------------------------------------|
|-----------------------------------------------|
|---------------------------------------12-11^--|
|----------9-----8----------------11-10---------|
|----------7-----6-----9-10-11-12---------------|
|-0--0--0-----0-----0--7--8---------------------|
| .  .  .     .     .
|
|HANNEMAN
|-----------------------------------------------|
|-----------------------------------------------|
|-----------------------------------------------|
|----------9-----8----------------------10--9^--|
|----------7-----6-----9-10--------9--8---------|
|-0--0--0-----0-----0--7--8--9-10---------------|
  .  .  .     .     .



 SOLO 1 HANNEMAN
[ Tab from: http://www.guitaretab.com/s/slayer/17461.html ]
|----------------------------------------------------------------|
|----------------------------------------------------------------|
|----------------------------------12----12-14-16b^^-16b^-16b^^--|
|----------------12----12-14-12-14----14-------------------------|
|----12-14-12-14----14-------------------------------------------|
|-15-------------------------------------------------------------|


|-------------------------------------12-14-15b^^--|-15--14b^^--15--14b^^--|
|----12h13p12----12h13p12----12h13-15--------------|-----------------------|
|-14----------14----------14-----------------------|-----------------------|
|--------------------------------------------------|-----------------------|
|--------------------------------------------------|-----------------------|
|--------------------------------------------------|-----------------------|

  BAR//\\\\\\\\\\\\\\\\\\\\\    BAR                            BAR
|-15p14p12h15p14p12h15p14p12-------------------------12----------------|
|----------------------------15b//\\\\///\\\\-----13-------------------|
|----------------------------14b//\\\\///\\\\--14----------14----------|
|-------------------------------------------------------14-------------|
|----------------------------------------------------------------------|
|-------------------------------------------------------------0\\\\----|


|---------------------------------------------------------|
|-21p18-21b^^--21b--21b--23b////\/\/\\--18h21p18----------|
|------------------------------------------------20b^^----|
|---------------------------------------------------------|
|---------------------------------------------------------|
|---------------------------------------------------------|


|----------18----18-21b^^----18h21p18----------------------------|
|-21-18-21----21----------------------21p18-21b^^----------------|
|--------------------------------------------------20b^^--20b^^--|
|----------------------------------------------------------------|
|----------------------------------------------------------------|
|----------------------------------------------------------------|


|--------------------------------------------------------------------------|
|-------------------------------------------------12h13p12----12h13p12b^^--|
|-------14----------------------------12-14b^--14----------14--------------|
|----14----14-------------------12-14--------------------------------------|
|-14----------14----------12-14--------------------------------------------|
|----------------15-12-15--------------------------------------------------|

  N.H. BAR                 N.H. BAR
|-12///\\\\///\\\\------------------------------14--15--------15--14----------|
|-12///\\\\///\\\\------------------------12^-----------13^-----------12b^^\--|
|-------------------14b^^--12\\/\/\/\\----------------------------------------|
|-----------------------------------------------------------------------------|
|-----------------------------------------------------------------------------|
|-----------------------------------------------------------------------------|




 RIFF 7 x8 UNDER SOLO 1

|-----------------------------------------------|
|-----------------------------------------------|
|-----------------------------------------------|
|----------9-----8------------------------------|
|----------7-----6-----9-10--------------5-6----|
|-0--0--0-----0-----0--7--8--0--0--0--0--3-4----|
  .  .  .     .     .        .  .  .  .



 FILL 1A UNDER SOLO 1

|--------------------------------------------------------------------|
|--------------------------------------------------------------------|
|--------------------------------------------------------------------|
|--------------------------------------------------------------------|
|-5----------------3----------------2--------------------------------|
|-3----------------1----------------0--------------------------------|




 RIFF 1A INTRO x1

|KING
|-----------------|-----------------|-----------------|-----------------|
|-----------------|-----------------|-----------------|-----------------|
|-----------------|-----------------|-----------------|-----------------|
|-----------------|-----------------|-----------------|-----------------|
|-(2)-------------|-----------------|-----------------|-----------------|
|-(0)-------------|-----------------|-----------------|-----------------|
|
|
|HANNEMAN
|-7-------7-------|-6-------6-------|-----------------|-----------------|
|---5---5---5---5-|---5---5---5---5-|-----5---7-------|-----5-------5---|
|-----4-------4---|-----4-------4---|---4---4---4---4-|---4---4---4---4-|
|-----------------|-----------------|-4-----------4---|-5-------3-------|
|-----------------|-----------------|-----------------|-----------------|
|-----------------|-----------------|-----------------|-----------------|


|KING
|-----0-------0---|-----0-------0---|-----0-------0---|-----0-------0---|
|---0---0---0---0-|---0---0---0---0-|---0---0---0---0-|---0---0---0---0-|
|-4-------4-------|-3-------3-------|-----------------|-----------------|
|-----------------|-----------------|-4-------4-------|-5-------3-------|
|-----------------|-----------------|-----------------|-----------------|
|-----------------|-----------------|-----------------|-----------------|
|
|
|HANNEMAN
|-7-------7-------|-6-------6-------|-----------------|-----------------|
|---5---5---5---5-|---5---5---5---5-|-----5---7-------|-----------------|
|-----4-------4---|-----4-------4---|---4---4---4---4-|-----------------|
|-----------------|-----------------|-4-----------4---|-----------------|
|-----------------|-----------------|-----------------|-x\\\\\\\\\\\\\--|
|-----------------|-----------------|-----------------|-x\\\\\\\\\\\\\--|




 RIFF 2A BREAK x1

|BOTH
|-----------------|-----------------|-----------------|-----------------|
|-----------------|-----------------|-----------------|-----------------|
|-----------------|-----------------|-----------------|-----------------|
|-4---------------|-3---------------|-----------------|-----------------|
|-2---------------|-1---------------|-4---------------|-5-------3-------|
|-----------------|-----------------|-2---------------|-3-------1-------|
|
|
|3RD GUITAR
|-----0-------0---|-----0-------0---|-----0-------0---|-----0-------0---|
|---0---0---0---0-|---0---0---0---0-|---0---0---0---0-|---0---0---0---0-|
|-4-------4-------|-3-------3-------|-----------------|-----------------|
|-----------------|-----------------|-4-------4-------|-5-------3-------|
|-----------------|-----------------|-----------------|-----------------|
|-----------------|-----------------|-----------------|-----------------|


|KING
|-----------------|-----------------|-----------------|-----------------|
|-----------------|-----------------|-----------------|-----------------|
|-----------------|-----------------|-----------------|-----------------|
|-4---------------|-3---------------|-----------------|-----------------|
|-2---------------|-1---------------|-4--4--4--4--4--4|-5-------3-------|
|-----------------|-----------------|-2--2--2--2--2--2|-3-------1-------|
|                                      x  x  x  x  x  x
|
|HANNEMAN
|-----------------|-----------------|-----------------|-----------------|
|-----------------|-----------------|-----------------|-----------------|
|-----------------|-----------------|-----------------|-----------------|
|-4---------------|-3---------------|-----------------|-----------------|
|-2---------------|-1---------------|-4---------------|-5-------3-------|
|-----------------|-----------------|-2---------------|-3-------1-------|
|
|3RD GUITAR
|-----0-------0---|-----0-------0---|-----0-------0---|-----0-------0---|
|---0---0---0---0-|---0---0---0---0-|---0---0---0---0-|---0---0---0---0-|
|-4-------4-------|-3-------3-------|-----------------|-----------------|
|-----------------|-----------------|-4-------4-------|-5-------3-------|
|-----------------|-----------------|-----------------|-----------------|
|-----------------|-----------------|-----------------|-----------------|




 RIFF 4 VERSE x4

 RIFF 5 CHORUS x1


 RIFF 6A OUTRO x2

|-----------------------------------------------|
|-----------------------------------------------|
|-----------------------------------------------|
|----------9-----8------------------------------|
|----------7-----6-----9-10--------------9--8^--|
|-0--0--0-----0-----0--7--8--0--0--9-10---------|
  .  .  .     .     .        .  .


|-----------------------------------------------|
|-----------------------------------------------|
|-----------------------------------------------|
|----------9-----8----------------------10--9^--|
|----------7-----6-----9-10--------9--8---------|
|-0--0--0-----0-----0--7--8--9-10---------------|
  .  .  .     .     .



 SOLO 2 KING
                    WAH & BAR    WAH & BAR  WAH & BAR WAH & BAR
|-----------------//10b\\\/\/\\------------------------------------|
|-20fb^^r--------------------------------------------/8//\/\/\/\\--|
|---------/21b^^-----------------12//\/\/\\-0\\\\\\----------------|
|------------------------------------------------------------------|
|------------------------------------------------------------------|
|------------------------------------------------------------------|

   BAR            BAR        N.H. BAR           N.H. BAR
|-------------------------------------------------------------------|
|-------------------------------------------------------------------|
|--------------/10///\/\/\\--3/\\\//////\/\/\\----------------------|
|-----------------------------------------------7\\\\\\-------------|
|--------------------------------------------------------x\\\\\\\\--|
|-0\\\\//////--------------------------------------------x\\\\\\\\--|




 RIFF 6A x UNDER SOLO 2


 FILL 3 END

|------------------------------------------------------------------|
|------------------------------------------------------------------|
|------------------------------------------------------------------|
|------------------------------------------------------------------|
|-2----------------------------------------------------------------|
|-0----------------------------------------------------------------|


|------------------------------|
|------------------------------|
|------------------------------|
|------------------------------|
|-2--------3-----5-----3--2----|
|-0--0--0--1--0--3--0--1--0----|
     .  .     .     .      x
Questions? Comments? Death threats?  lopie_jnco_13@yahoo.com
Related for Spill The Blood tab
×
Best way to learn
"Spill The Blood"