Song name
# A B C D E F G H I J K L M N O P Q R S T U V W X Y Z

Slayer - Raining Blood tab

 1/2 step down;                  +=Harmônico Artificial
6=Eb  3=Gb                       P.M.=Palm Mute
5=Ab  2=Bb                       %=Repitir anterior
4=Db  1=Eb                       h=Hammer-On
                                 p=Pull-Off


Intro
||---------------------------------------------------------||
||---------------------------------------------------------||
||---------------------------------------------------------||
||---------------------------------------------------------||
||---------------------------------------------------------||
||---------------------------------------------------------||

Fast Rock
Riff A (guitarras 1&2)-------------------
P.M====|                                 Toque 2 vezes
||---------------------------------------------------------||
||---------------------------------------------------------||
||---------------------------------------------------------||
||----------8-9-8------8-7-------7-6-----------------------||
||-------7----------9---------8----------------------------||
||0-0-0----------------------------------------------------||

C/Riff A (2 vezes)
GTR II
P.M.===|        +      +
||---------------------------------------------------------||
||---------------------------------------------------------||
||----------8-9-8------8-7-----7-6-------------------------||
||-------7----------9--------8-----------------------------||
||---------------------------------------------------------||
||0-0-0----------------------------------------------------||

Duas Guitarras
P.M.=======================================================
||---------------------------------------------------------||
||---------------------------------------------------------||
||O--------------------------------------------------------||
||O--------------------------------------------------------||
||---------------------------------------------------------||
||-000-000-000-000-000-000-000-000-000-000-000-000---------||

P.M.=======|                            (toque 4 vezes)
||---------------------------------------------------------||
||---------------------------------------------------------||
||--------------------------------------------------------O||
||----------------3---2-----------------------------------O||
||------------4-----------3---2----------------------------||
||-0--2---4------------------------------------------------||


(1)
P.M.==============================
||--------------------------------|------------------------||
||--------------------------------|------------------------||
||--------------------------------|------------%-----------||
||--------------------------------|------------------------||
||--------------------------------|------------------------||
||5-3-2-0-6-4-3-0-5-3-2-0-6-4-3-0-|------------------------||

                                                        (cont)..
PM=========================================================
||---------------------------------------------------------||
||---------------------------------------------------------||
||---------------------------------------------------------||
||---------------------------------------------------------||
||---------------------------------------------------------||
||5-3-2-0-6-4-3-0-5-3-2-0-6-4-3-0-5-3-2-0-6-4-3-0-5-3-2-0-6||

..
P.M ===========|   P.M.================================(cont)...
||---------------------------------------------------------||
||---------------------------------------------------------||
||---------------------------------------------------------||
||---------------3-----------------------------------------||
||---------------1-----------------------------------------||
||4-3-0-5-3-2-0----0-3-5-3-2-0-6-4-3-0-5-3-2-0-6-4-3-0-----||

P.M.=============|         (Toque 2 vezes)
||---------------------------------------------------------||
||---------------------------------------------------------||
||---------------------------------------------------------||
||---------------------------------------------------------||
||--------------------5------------8-----------------------||
||5-3-2-0-6-4-3-0-----3------------6-----------------------||

-(1)-

(2)

  (Trapped in purgatory.........)
P.M.===================|             P.M.=====| (Toque 8 vezes)
||----------------------------------------------------------||
||----------------------------------------------------------||
||------------------------------9---8--------------7--------||
||-----------------------7------9---8----------7---7--------||
||-----------------------7------7---6----------7---5--------||
||000000000000000000000--5------------00000000-5------------||

-(2)-

(toque 4 vezes, na terceira com a letra)
 P.M.====|           +P.M.==|
||----------------------------------------------------------||
||----------------------------------------------------------||
||--------------------------------------888888888888--------||
||----------------------------------8-7-888888888888--7--7--||
||--------7h10 p 8-7-8-------7---10-----666666666666--7--7--||
||0-0-0-0--------------0-0-0--------------------------5--5--||


Com o Riff A (4 vezes, 3rd com letras (awaiting........)
||----------------------------------------------------------||
||----------------------------------------------------------||
||--------10-11-10------10-9-----9-8------------------------||
||------9------------11--------10---------------------------||
||----------------------------------------------------------||
||0-0-0-----------------------------------------------------||

Rhythm Fig 1  (Toque 2 vezes, 2nd com bateria)
||--------------------------------------||
||--------------------------------------||
||--------------------------------------||
||--------------------------------------||
||2-2--2-2--2-2--2-2--2-2--2-2--2-2--2-2||
||0-0--0-0--0-0--0-0--0-0--0-0--0-0--0-0||                                        Com
Slide (2nd)
                                     Com Pick Slide (2nd)

With Rhy Fig 1 (12 vezes)
  PM           PM         PM            PM
||----------------------------------------------------------||
||----------------------------------------------------------||
||----------------------------------------------------------||
||-----------9----------8------------7----------------------||
||----7--10-------7--10--------7--10--------7-10-9----------||
||-0------------0-----------0------------0------------------||

(3)
Com letras (Raining Blood) Toque 4 vezes
 P.M.=|       ====|       ====|      ====|
||--------------------------------------------||
||--------------------------------------------||
||--------------------------------------------||
||--------------------------------------------||
||------5---9-------5---8-------5--7-------5-4||
||-0--0-3---7--0--0-3---6--0--0-3--5--0--0-3-2||

-(3)-

||----------------------------------------------------------||
||----------------------------------------------------------||
||----------------------------------------------------------||
||----------------------------------------------------------||
||----------------------------------------------------------||
||0000000000000000000000000000000000000000000000000000000000||


(4)
solo =)
||----------------------------------------------------------||
||----------------------------------------------------------||
||----------------------------------------------------------||
||----------------------------------------------------------||
||----------------------------------------------------------||
||0000000077777777776666666666333333444444444477777777778888||
Tap to rate this tab
# A B C D E F G H I J K L M N O P Q R S T U V W X Y Z