Song name
# A B C D E F G H I J K L M N O P Q R S T U V W X Y Z

Slayer - Hate Worldwide tab

Hatred Worldwide
Slayer
Hatred Worldwide Single                Tuning, Half Step
                                (Low to High) Eb Ab Db Gb Bb eb

This song just came out today and it shows some classic Slayer speed. To me it somewhat 
War Ensemble.

Some of the last riffs may be a little off, but it did just come out so give me a break, 
more than enough to get
you going!

This is from the Hate Worldwide Single found at Hot Topic starting today, July 28, 2009

Email me any corrections at soadfan207@yahoo.com and I will be glad to change it up!

The solos are not featured here, mostly because I wanted to hurry and put this out, as 
is a great song and many should learn it! If I get enough people asking for them, I will 
them a go.

Thank you for checking this out and keepin’ up with Slayer! \m/


Intro:
Gtr. 1
|--------------------------------------------------------------||
|--------------------------------------------------------------||
|--------------------------------------------------------------||
|--------------------------------------------------------------||
|--7-------7-------7---8-------8-------8-7-------7-------7-----||
|----0-0-0---0-0-0---0---0-0-0---0-0-0-----0-0-0---0-0-0---0---||
|    pm---|  pm---|  pm  pm---|  pm---|    pm---|  pm----------||  pm
Gtr. 2

|-------------------------------------------------------------|
|-------------------------------------------------------------|
|--9------------------------------------10-9------------------|
|--9------------------------------------10-9------------------|
|--7------------------------------------8--7------------------|
|-------------------------------------------------------------|

|----------------------------------------------------------------||
|----------------------------------------------------------------||
|----------------------------------------------------------------||
|----------------------------------------------------------------||
|--10-------10-------8-7-------7-------7---8-------8-------6-7---||
|-----0-0-0----0-0-0-----0-0-0---0-0-0---0---0-0-0---0-0-0-------||
|     pm---|   pm---|    pm---|  pm---|  pm  pm---|  pm----------||
|
|---------------------------------------------------------------|
|---------------------------------------------------------------|
|----------------------------------------------------------8-9--|
|----------------------------------------------------------8-9--|
|---------------------3-2-------2------2---3---------------6-7--|
|---------------------1-0-------0------0---1--------------------|

|-----------------------||
|-----------------------||
|-----------------------||
|-----------------------||
|--------7-------7-8----||
|--0-0-0---0-0-0--------||
| pm---|   pm-----------||
|
|----------------------||
|----------------------||
|---------9------------||
|---------9------------||
|---------7-------2-3--||
|-----------------0-1--||

Verses: (Both guitars) (x2)

||------------------------------------------------------------------------------||
||-0----------------------------------------------------------------------------||
||------------------------------------------------------------------------------||
||------------------------------------------------------------------------------||
||-0--3---------2-----5---5---4---4—--4-----3---------2-----5---5---4---4—--4---||
||----1-0-0-0-0-0---0---0---0---0---0---0---1-0-0-0-0-0---0---0---0---0---0---0-||
     pm-----|    pm  pm  pm  pm  pm  pm     pm----------------------------------||   
pm  pm  pm  pm  pm  pm

|--------------------------------------------------------------------------------||
|------------------------------------------------------------------------------0-||
|--------------------------------------------------------------------------------||
|--------------------------------------------------------------------------------||
|--3---------2-----5---5---4---4—--4-----3---------2-----5---5---4---4—--7~~~--0-||
|--1-0-0-0-0-0---0---0---0---0---0---0---1-0-0-0-0-0---0---0---0---0---0---------||
     pm-----|    pm  pm  pm  pm  pm  pm     pm-----------------------------------||   
pm  pm  pm  pm  pm
Chorus:

||------------------------------------------------------------------------------||
||------------------------------------------------------------------------------||
||------------------------------------------------------------------------------||
||---2---------2---------7---------2---------2---------2---------2---------7----||
||---2--4-4-4--2--4-4-4--7--4-4-4--2--4-4-4--2--4-4-4--2--4-4-4--2--4-4-4--7----||
||---0--2-2-2--0—-2-2-2--5--2-2-2--0--2-2-2--0--2-2-2--0--2-2-2--0--2-2-2--5----||
      pm----|  pm---|   pm--|   pm---|   pm--|   pm--|   pm---------------------||
|-------------------------------------------------------------------------------||
|-------------------------------------------------------------------------------||
|-------------------------------------------------------------------------------||
|-------------------------------------------------------------------------------||
|-------------------------------------------------------------------------------||
|--2-2-2-2-2-2-2-2--------------------------------------------------------------||

Solo Rhythm:
||- ----------------------------------------||
||------------------------------------------||
||------------------------------------------||
||------------------------------------------||
||----------4---------6---7---6-------------||
||--4-4-4-4---4-4-4-4---4---4---5-5-5-5-----||
  pm----|  pm----|  pm pm  pm   pm----------||
||- ----------------------------------------||
||------------------------------------------||
||------------------------------------------||
||------------------------------------------||
||----------4---------5---6---5-------------||
||--4-4-4-4---4-4-4-4---4---4---5-5-5-5-----|| x2
  pm----|  pm----|  pm pm   pm pm-----------||
||- ----------------------------------------||
||------------------------------------------||
||------------------------------------------||
||------------------------------------------||
||----------5---------5---6---5-------------||
||--4-4-4-4---4-4-4-4---4---4---5-5-5-5-----||
  pm----|  pm----|  pm pm  pm   pm----------||
||- ----------------------------------------||
||------------------------------------------||
||------------------------------------------||
||------------------------------------------||
||----------5---------7---8---7-------------||
||--5-5-5-5---5-5-5-5---5---5---6-6-6-6-----||
  pm----|  pm----|  pm pm  pm   Pm----------||
||- ----------------------------------------||
||------------------------------------------||
||------------------------------------------||
||------------------------------------------||
||----------5---------6---7---6-------------||
||--5-5-5-5---5-5-5-5---5---5---6-6-6-6-----|| x2
  pm----|  pm----|  pm pm  pm   pm----------||
||- ----------------------------------------||
||------------------------------------------||
||------------------------------------------||
||------------------------------------------||
||----------6---------6---7---6-------------||
||--5-5-5-5---5-5-5-5---5---5---6-6-6-6-----||
  pm----|  pm----|  pm pm  pm   pm----------||
Solo 2 Rhythm
||- ---------------------------------------------------------------------||
||-----------------------------------------------------------------------||
||-----------------------------------------------------------------------||
||-----------------------------------------------------------------------||
||--2-2-2-2=3-2-4-2-5-2-4-2-2-2-2-3-2-2-2-2-3-2-2-2-2-7-7-7-7-6-6-6-6----||
||-----------------------------------------------------------------------||
  pm-------|  pm  pm pm  pm-----|   pm-----|  pm-------------------------||
2nd part of Solo 2 Rhythm is the single note version intro and than a small variation of that intro
Bridge Thing
||--------------------------------------------------------||
||--------------------------------------------------------||
||--------------------------------------------------------||
||--2-------2-------2-3-2-3--6--5-5-4-5-4-5-3-------------||
||--2-------2-------2-3-2-3--6--5-5-4-5-4-5-3-------------||
||--0-0-0-0-0-0-0-0-0-1-0-1--4--3-3-2-3-2-3-1-------------||

Final Riff
||-------------------------------------------------------------------------||
||-------------------------------------------------------------------------||
||-------------------------------------------------------------------------||
||-------------------------------------------------------------------------||
||-------------------------------------------------------------------------||
||--2-2-2-2-0-2-2-2-2-3-3-3-3-0-0-0-0-2-2-2-2-0-2-2-2-2-5-5-5-5-3-3-3-3-0--||

End with a G chord (Eb-3 Ab-5)

SSSSLLLLLLAAAAAYYYYYYYYEEEEERRRRRR!!!!!  \m/ \m/
Tap to rate this tab
 
# A B C D E F G H I J K L M N O P Q R S T U V W X Y Z