Song name
# A B C D E F G H I J K L M N O P Q R S T U V W X Y Z

Slayer - World Painted Blood tab

SONG : World Painted Blood
ALBUM : World Painted Blood
ARTISTt : Slayer
TUNING : Eb
DIFFICULTY : Intermediate

Intro Riff
Eb||-------------------------------------------------|-----------------||
Bb||-------------------------------------------------|-----------------||
Gb||-------------------------------------------------|-----------------||
Db||-------------------------------------------------|-------7---------||
Ab||----666-555-111-222-00---------------------------|-------7---------||
Eb||-------------------------------------------------|-------5---------||
                                                         ( Hit A Chord on last Time the 
is played )

Riff 1
E||--------------------------------------------------------------------||
B||--------------------------------------------------------------------||
G||--------------------------------------------------------------------||
D||--------------------------------------------------------------------||
A||--------------------------------------------------------------------||
E||-000-000-0-0-0-0-000-000-0-0-0-0-000-0-0-0-0-000-0-0-0-0-1111-4444--||


Riff 2
Eb||-------------------------------------------------------------------||
Bb||-------------------------------------------------------------------||
Gb||-------------------------------------------------------------------||
Db||-------------------------------------------------------------------||
Ab||-------------------------------------------------------------------||
Eb||------4-4-4-4-4-4—2-2-2-2-2-2—4-4-4-4-4-4-5-5-5-5------------------||


Riff 3
Eb||-------------------------------------------------------------------||
Bb||-------------------------------------------------------------------||
Gb||-------------------------------------------------------------------||
Db||----6-6-6-6-6-6-6-6-7-7-7-9-9-9-12-11-11-11-11-11-11-11-9----------||
Ab||----4-4-4-4-4-4-4-4-5-5-5-7-7-7-10-9--9-9---9---9--9--9-7-10-------||
Eb||----------------------------------------------------------8--------||


Riff 4
Eb||-------------------------------------------------------------------||
Bb||-------------------------------------------------------------------||
Gb||-------------------------------------------------------------------||
Db||-------------------------------------------------------------------||
Ab||--5h7--------5h7---5h8—7p5-5h7----------------5p4----5--5----------||
Eb||-----000000-----0--------------------00000000-----00-3--3----------||


Riff 5
Eb||-------------------------------------------------------------------||
Bb||-------------------------------------------------------------------||
Gb||-------------------------------------------------------------------||
Db||--2—--2-2---2-2-2--------------------------------------------------||
Ab||--2---2-2---2-2-2-----2-4-4-5-4------------------------------------||
Eb||--0---0-0---0-0-0--------------------------------------------------||


Solo

The solo is just really squeals with the whammy bar traded between Jeff and Kerry, go 
with that for a bit 4 bars, then play the backing chords while the other guitarist uses 
whammy for 4 bars

Riff 6
Eb||--------------------------------------------------------|-----------||
Bb||--------------------------------------------------------|-----------||
Gb||--------------------------------------------------------|-----------||
Db||-4-4-4-4-4-4-4-4-6-6-6-7-7-7-9-8-8-8-8-8-8-8-8-6-6-6-4--|------2----||
Ab||-2-2-2-2-2-2-2-2-4-4-4-5-5-5-7-6-6-6-6-6-6-6-6-4-4-4-2--|------2----||
Eb||--------------------------------------------------------|------0----||
                            ( Hit E chord last time riff 6 is played )


LEGEND

h = Hammer On
p = Pull Off


Riff’s number of plays

Intro riff 6  Times
Riff 1 5 Times
Riff 2 2 Times
Riff 1 4 Times
Riff 2 2 Times
Riff 3 3 Times
Riff 4 4 Times
Riff 3 2 Times
Riff 4 4 Times
Riff 3 2 Times
Riff 5 ( Solo rhythm ) 9 Times
Riff 5 8 Times
Riff 1 4 Times
Riff 2 2 Times
Riff 3 2 Times
Riff 6 3 Times

This is my first tab, it took me an hour and a half to do, I really tried so if you have 
corrections or suggestions email me at        metalheadedwarrior@hotmail.com

Email me if you want to use my tab, I will not tolerate theft, this is my work and you 
email me if you want to use it on your site 

Cheers! :D
Tap to rate this tab
# A B C D E F G H I J K L M N O P Q R S T U V W X Y Z