Song name
# A B C D E F G H I J K L M N O P Q R S T U V W X Y Z

Slayer - World Painted Blood tab

---------------------------------------------------------------------------
		         WORLD PAINTED BLOOD - SLAYER
---------------------------------------------------------------------------

Tabbed by: RCAlbright
Email: RonaldCAlbright@gmail.com

Tuning: Eb Ab Db Gb Bb eb

Riff 1 Intro

eb|------------------------------------------|
Bb|------------------------------------------|
Gb|------------------------------------------|
Db|------------------------------------------|
Ab|---7--6-----------------------------------|
Eb|----------7--8--7-5-----------------------|

Riff 2 Verse

eb|------------------------------------------------------------------|
Bb|------------------------------------------------------------------|
Gb|------------------------------------------------------------------|
Db|------------------------------------------------------------------|
Ab|------------------------------------------------------------------|
Eb|-000-0-0-0-0-000-000-0-0-0-0-000-000-0-0-0-0-0-0-1111111144444444-|
pm  ... . . . . ... ... . . . . ... ... . . . . . . ................

Riff 3 Chorus

eb|------------------------------------------------------------------|
Bb|------------------------------------------------------------------|
Gb|------------------------------------------------------------------|
Db|------------------------------------------------------------------|
Ab|------------------------------------------------------------------|
Eb|-000-0-000-0-000-000-0-000-0-000-000-0-000-0-000-4444444422222222-|
pm  ... . ... . ... ... . ... . ... ... . ... . ...

Riff 4 

eb|-----------------------------------------|
Bb|-----------------------------------------|
Gb|-----------------------------------------|
Db|---------------6655555555----------------|
Ab|-75555555777888----------88844444--------|
Eb|-----------------------------------------|

Riff 5

eb|----------------------------------------------------|
Bb|----------------------------------------------------|
Gb|----------------------------------------------------|
Db|----------------------------------------------------|
Ab|--7h8--------7h8---8h10---7h8-7h8--------8///233333-|
Eb|------000000-----0------0---------000000-----011111-|
pm       ......     .      .         ......     ......

Riff 6 (also solo backing)

eb|---------------------------------|
Bb|---------------------------------|
Gb|---------------------------------|
Db|---------------------------------|
Ab|-2---2-2-----2-2-2------3336666--|
Eb|-0---0-0-----0-0-0------1114444--|
pm  .   . .     . . .      .......


| /  slide up
| \  slide down
| h  hammer-on
| p  pull-off
| ~  vibrato
| +  harmonic
| x  Mute note
============================================================================
Tap to rate this tab
 
# A B C D E F G H I J K L M N O P Q R S T U V W X Y Z