Song name
# A B C D E F G H I J K L M N O P Q R S T U V W X Y Z

Slayer - Playing With Dolls tab

SLAYER


playing with dolls


Tabbed by Rudy Guzman


guzman_84@hotmail


   i never thought the taste of you would be the only thing to make me...  *(repeat riff)*    
eb|-0-0-0-0-0-0-0-0-0--0-0-0-0--0-0-0-0--0-0-0-0-0-0-0-0-0-0--0--0--0---0--0--0--0--|
Bb|-5-5-5-5-5-5-5-5-5--8-8-8-8--7-7-7-7--5-5-5-5-5-5-5-5-5/11-11-11-11--10-10-10-10-|
Gb|---------------------------------------------------------------------------------|
Db|---------------------------------------------------------------------------------|
Ab|---------------------------------------------------------------------------------|
Eb|---------------------------------------------------------------------------------|

   die in front of them...
    gt1
eb|-0-0-0-0-0-0-0-0-0--0-0-0-0--0-0-0-0--0-0-0-0-0-0-0-0-0-0--0--0--0---0--0--0--0--|
Bb|-5-5-5-5-5-5-5-5-5--8-8-8-8--7-7-7-7--5-5-5-5-5-5-5-5-5/11-11-11-11--10-10-10-10-|
Gb|---------------------------------------------------------------------------------|
Db|---------------------------------------------------------------------------------|
Ab|---------------------------------------------------------------------------------|
Eb|---------------------------------------------------------------------------------|

    gt2                                x2
eb|--------------------------------------|
Bb|--------------------------------------|
Gb|--------------------------------------|
Db|-4---------------3--------------------|
Ab|-2---------------1--------5-----------|
Eb|--------------------------3-----------|


    gt2                                x2
eb|--------------------------------------|
Bb|--------------------------------------|
Gb|-4---------------3--------------------|
Db|-x---------------x--------------------|
Ab|-2---------------1--------5-----------|
Eb|--------------------------3-----------|

   verse                                                x4
eb|--------------------------------------------------------|
Bb|--------------------------------------------------------|
Gb|--------------------------------------------------------|
Db|----------------------------------------------------4-3-|
Ab|---------1-------------1------------2-1---------2-1-----|
Eb|-0-3-2-0---3--0-3-2-0----3--0-3-2-0-----0-3-2-0---------|

                                                 x4
eb|--------------------------------------------------|
Bb|--------------------------------------------------|
Gb|--------------------------------------------------|
Db|--------------------------------------------------|
Ab|-9-10-10-10-10-10-10-10--13-13-13-13--12-12-12-12-|
Eb|-0-0--0--0--0--0--0--0---0--0--0--0---0--0--0--0--|


    gt1                                                                           x2
eb|-0-0-0-0-0-0-0-0-0--0-0-0-0--0-0-0-0--0-0-0-0-0-0-0-0-0-0--0--0--0---0--0--0--0--|
Bb|-5-5-5-5-5-5-5-5-5--8-8-8-8--7-7-7-7--5-5-5-5-5-5-5-5-5/11-11-11-11--10-10-10-10-|
Gb|---------------------------------------------------------------------------------|
Db|---------------------------------------------------------------------------------|
Ab|---------------------------------------------------------------------------------|
Eb|---------------------------------------------------------------------------------|

    gt2                                           x2
eb|-------------------------------------------------|
Bb|-------------------------------------------------|
Gb|-------------------------------------------------|
Db|----------------------------------------3-3--2-2-|
Ab|-2-2-2-2-2-2-2--5-5--4-4--2-2-2-2--2-2--1-1--0-0-|
Eb|-0-0-0-0-0-0-0--3-3--2-2--0-0-0-0--0-0-----------|

   die in front of them...
    gt1
eb|-0-0-0-0-0-0-0-0-0--0-0-0-0--0-0-0-0--0-0-0-0-0-0-0-0-0-0--0--0--0---0--0--0--0--|
Bb|-5-5-5-5-5-5-5-5-5--8-8-8-8--7-7-7-7--5-5-5-5-5-5-5-5-5/11-11-11-11--10-10-10-10-|
Gb|---------------------------------------------------------------------------------|
Db|---------------------------------------------------------------------------------|
Ab|---------------------------------------------------------------------------------|
Eb|---------------------------------------------------------------------------------|

    gt2                                x2
eb|--------------------------------------|
Bb|--------------------------------------|
Gb|--------------------------------------|
Db|-4---------------3--------------------|
Ab|-2---------------1--------5-----------|
Eb|--------------------------3-----------|


    gt2                                x2
eb|--------------------------------------|
Bb|--------------------------------------|
Gb|-4---------------3--------------------|
Db|--------------------------------------|
Ab|-2---------------1--------5-----------|
Eb|--------------------------3-----------|

   verse                                                x2
eb|--------------------------------------------------------|
Bb|--------------------------------------------------------|
Gb|--------------------------------------------------------|
Db|----------------------------------------------------4-3-|
Ab|---------1-------------1------------2-1---------2-1-----|
Eb|-0-3-2-0---3--0-3-2-0----3--0-3-2-0-----0-3-2-0---------|


    solo
eb|-------12\---12-13-15--12-13-15--12-13-15--12-13-15--12-13-15-13-12-13-12--------------|
Bb|---------------------------------------------------------------------------15-12-13-12-|
Gb|---------------------------------------------------------------------------------------|
Db|---------------------------------------------------------------------------------------|
Ab|---------------------------------------------------------------------------------------|
Eb|-12\-----------------------------------------------------------------------------------|

eb|------------------------------------------------12-12-13-15-13-12-13-12----------------|
Bb|-12h13p12---------------------------------------------------------------15-12-13-15-13-|
Gb|-----------14-12-14b--12h14-12~~~--12h14-11~~~~----------------------------------------|
Db|---------------------------------------------------------------------------------------|
Ab|---------------------------------------------------------------------------------------|
Eb|---------------------------------------------------------------------------------------|

eb|------------------------------------------------------------|
Bb|-12-----------------------------------------------10ah~~~~--|
Gb|----14-11-12-14--14tp12p11--16tp12p11-----------------------|
Db|--------------------------------------14tp12p11-------------|
Ab|------------------------------------------------------------|
Eb|------------------------------------------------------------|


     wah--------------------------------------------------------
eb|-----------------------------------------------------------7nh----------|
Bb|-/8-8-8-8-8-8--/8-8-8-8-8-8--/8-8- /8-8-8-8--/8-8-8-8-8-8--7nh----------|
Gb|-/7-7-7-7-7-7--/7-7-7-7-7-7--/7-7--/7-7-7-7--/7-7-7-7-7-7--7nh----------|
Db|------------------------------------------------------------------------|
Ab|------------------------------------------------------------------------|
Eb|-----------------------------------------------------------------12\----|

eb|-14-15-14-15-14-15-14-15-17-15-14----------------14-15-14-15-14-15-17-15-14------------|
Bb|----------------------------------17-14-15-14-15----------------------------17-14-15-14|
Gb|---------------------------------------------------------------------------------------|
Db|---------------------------------------------------------------------------------------|
Ab|---------------------------------------------------------------------------------------|
Eb|---------------------------------------------------------------------------------------|

            bar---------------
eb|---------------------------------20b---18-19-18-19-21-18-19-18-19-21-18-19-21-18-19-21-|
Bb|---------------------------------------------------------------------------------------|
Gb|-16-14-16b~~-(16b~~)--0----------------------------------------------------------------|
Db|---------------------------------------------------------------------------------------|
Ab|---------------------------------------------------------------------------------------|
Eb|--------------------------0------------------------------------------------------------|

eb|-----------------------------------------19\--|
Bb|-21-18-19-21-19-18--21b--18b--20\-------------|
Gb|--------------------20b--20b-------10/18------|
Db|----------------------------------------------|
Ab|----------------------------------------------|
Eb|----------------------------------------------|

    you wish you were in hell...
eb|-----------------------------------------------------------------------|
Bb|-8---8-8--8ah-8AH-8AH-8AH-8AH------8ah-8ah------8ah-8ah-------8ah------|
Gb|------------------------------7ah----------7ah-----------7ah-------7ah-|
Db|-----------------------------------------------------------------------|
Ab|-----------------------------------------------------------------------|
Eb|-----------------------------------------------------------------------|

                                                 bar------------------
eb|----------------------------------------------------0-------------------------|
Bb|-8ah-8ah-------8ah------8ah-8ah-----8ah-------0-----0----0----(0ah)-----------|
Gb|----------7ah-------7ah---------7ah-----7ah---0----------0----(0ah)-----------|
Db|------------------------------------------------------------------------------|
Ab|-------------------------------------------------------------------------2----|
Eb|-------------------------------------------------------------------------0----|


   i never thought the taste of you would be the only thing to make me...     
eb|-0-0-0-0-0-0-0-0-0--0-0-0-0--0-0-0-0--0-0-0-0-0-0-0-0-0-0--0--0--0---0--0--0--0--|
Bb|-5-5-5-5-5-5-5-5-5--8-8-8-8--7-7-7-7--5-5-5-5-5-5-5-5-5/11-11-11-11--10-10-10-10-|
Gb|---------------------------------------------------------------------------------|
Db|---------------------------------------------------------------------------------|
Ab|---------------------------------------------------------------------------------|
Eb|---------------------------------------------------------------------------------|

                                                 x2
eb|-------------------------------------------------|
Bb|-------------------------------------------------|
Gb|-------------------------------------------------|
Db|----------------------------------------3-3--2-2-|
Ab|-2-2-2-2-2-2-2--5-5--4-4--2-2-2-2--2-2--1-1--0-0-|
Eb|-0-0-0-0-0-0-0--3-3--2-2--0-0-0-0--0-0-----------|

   verse                                                x4
eb|--------------------------------------------------------|
Bb|--------------------------------------------------------|
Gb|--------------------------------------------------------|
Db|----------------------------------------------------4-3-|
Ab|---------1-------------1------------2-1---------2-1-----|
Eb|-0-3-2-0---3--0-3-2-0----3--0-3-2-0-----0-3-2-0---------|


    gt1
    bar----------------
eb|------------/--------|
Bb|----------/----------|
Gb|--------/------------|
Db|------/--------------|
Ab|----/----------------|
Eb|-0/------------------|

   
    gt2
     you wish you were in hell...                  x3
eb|--------------------------------------------------|
Bb|--------------------------------------------------|
Gb|--------------------------------------------------|
Db|--------------------------------------------------|
Ab|-9-10-10-10-10-10-10-10--13-13-13-13--12-12-12-12-|
Eb|-0-0--0--0--0--0--0--0---0--0--0--0---0--0--0--0--|


eb|-----------------------------------------|
Bb|-----------------------------------------|
Gb|-----------------------------------------|
Db|-----------------------------------------|
Ab|-9-10-10-10-10-10-10-10--13-13-13-13--12-|
Eb|-0-0--0--0--0--0--0--0---0--0--0--0---0--|


hillo son mex
27/10/09
Tap to rate this tab
# A B C D E F G H I J K L M N O P Q R S T U V W X Y Z