Song name
# A B C D E F G H I J K L M N O P Q R S T U V W X Y Z

Slayer - Eyes Of The Insane tab

#----------------------------------PLEASE NOTE---------------------------------#
#This file is the author's own work and represents their interpretation of the #
#song. You may only use this file for private study, scholarship, or research. #
#------------------------------------------------------------------------------#





	



Gtr I (D A D G B E) - 'King'
Gtr II (D A D G B E) - 'Henamen'
Gtr III (D A D G B E) - 'Areya'

   Versse
   4/4
    Gtr II
    E E E E E E E E E E E E E E E E   E E E E E E E E E E E E E E E E  4x
||----------------------------------|----------------------------------||
||o---------------------------------|---------------------------------o||
||----------------------------------|----------------------------------||
||----------------------------------|----------------------------------||
||o---------------------------------|---------------------------------o||
||--0-0-0-0-0-0-0-0-0-0-0-0-0-0-0-0-|-0-0-0-0-0-0-0-0-0-0-0-0-0-0-0-0--||
|
|   Gtr I
|   E Q     E Q     E E E E E E E E   E Q     E Q     E E E E E E E E  4x
||----------------------------------|----------------------------------||
||o---------------------------------|---------------------------------o||
||----------------------------------|----------------------------------||
||--0-0-----2-3---------------------|-0-0-----2-3----------------------||
||o-----------------4-4-4-4-4-4-4-4-|-----------------4-4-4-4-4-4-4-4-o||
||----------------------------------|----------------------------------||


 Prechorus A
  Gtrs I, II
  E E E E E E E E   E E E E E E E E   E E E E E E E E   E E E E E E E E
|-----------------|-----------------|-----------------|-----------------|
|-----------------|-----------------|-----------------|-----------------|
|-----------------|-----------------|-----------------|-----------------|
|-----------------|-----------------|-----------------|-----------------|
|-0-1-4-3-0-1-0-3-|-0-1-4-3-0-1-0-3-|-0-1-4-3-0-1-0-3-|-0-1-4-3-0-1-0-3-|
|-0-1-4-3-0-1-0-3-|-0-1-4-3-0-1-0-3-|-0-1-4-3-0-1-0-3-|-0-1-4-3-0-1-0-3-|


   Verse
    E E E E E E E E E E E E E E E E   E E E E E E E E E E E E E E E E   4x
||----------------------------------|-----------------------------------||
||o---------------------------------|----------------------------------o||
||----------------------------------|-----------------------------------||
||----------------------------------|-----------------------------------||
||o---------------------------------|----------------------------------o||
||--0-0-0-0-0-0-0-0-0-0-0-0-0-0-0-0-|-0-0-0-0-0-0-0-0-0-0-0-0-0-0-0-0---||
|
|   E Q     E Q     E E E E E E E E   E Q     E Q     E E E E E E E E   4x
||----------------------------------|-----------------------------------||
||o---------------------------------|----------------------------------o||
||----------------------------------|-----------------------------------||
||--0-0-----2-3---------------------|-0-0-----2-3-----------------------||
||o-----------------4-4-4-4-4-4-4-4-|-----------------4-4-4-4-4-4-4-4--o||
||----------------------------------|-----------------------------------||


 Prechorus A
  E E E E E E E E E E E E E E E E   E E E E E E E E E E E E E E E E
|---------------------------------|-----------------------------------|
|---------------------------------|-----------------------------------|
|---------------------------------|-----------------------------------|
|---------------------------------|-----------------------------------|
|-0-1-4-3-0-1-0-3-0-1-4-3-0-1-0-3-|-0-1-4-3-0-1-0-3-0-1-4-3-0-1-0-3---|
|-0-1-4-3-0-1-0-3-0-1-4-3-0-1-0-3-|-0-1-4-3-0-1-0-3-0-1-4-3-0-1-0-3---|


 Prechorus B
  E E E E E E E E E E E E E E E E   E E E E E E E E E E E E E E E E
|---------------------------------|-----------------------------------|
|---------------------------------|-----------------------------------|
|---------------------------------|-----------------------------------|
|---------------------------------|-----------------------------------|
|-0-1-4-3-0-1-2-1-0-1-4-3-0-1-2-1-|-0-1-4-3-0-1-2-1-0-1-4-3-0-1-2-1---|
|-0-1-4-3-0-1-2-1-0-1-4-3-0-1-2-1-|-0-1-4-3-0-1-2-1-0-1-4-3-0-1-2-1---|


   Chorus A
    Gtrs I, II
    |--3--|
    S S S S E  5x
||-------------||----|
||o-----------o||----|
||--1-1-1-1-1--||----|
||--0-0-0-0-0--||----|
||o-----------o||----|
||-------------||----|


 Chorus B
  Gtrs I, II
  |-3-|   |-3-|
  S S S E S S S E
|--------------------|
|--------------------|
|-1-1-1-1-1-1-1-1----|
|-0-0-0-0-0-0-0-0----|
|--------------------|
|--------------------|


 Drum Fill
  Wx2
|--------|
|--------|
|--------|
|--------|
|--------|
|--------|


 Pre Chorus A
  Gtrs I, II
  E E E E E E E E E E E E E E E E   E E E E E E E E E E E E E E E E
|---------------------------------|-----------------------------------|
|---------------------------------|-----------------------------------|
|---------------------------------|-----------------------------------|
|---------------------------------|-----------------------------------|
|-0-1-4-3-0-1-0-3-0-1-4-3-0-1-0-3-|-0-1-4-3-0-1-0-3-0-1-4-3-0-1-0-3---|
|-0-1-4-3-0-1-0-3-0-1-4-3-0-1-0-3-|-0-1-4-3-0-1-0-3-0-1-4-3-0-1-0-3---|


 Pre Chorus B
  Gtrs I, II
  E E E E E E E E E E E E E E E E   E E E E E E E E E E E E E E E E
|---------------------------------|-----------------------------------|
|---------------------------------|-----------------------------------|
|---------------------------------|-----------------------------------|
|---------------------------------|-----------------------------------|
|-0-1-4-3-0-1-2-1-0-1-4-3-0-1-2-1-|-0-1-4-3-0-1-2-1-0-1-4-3-0-1-2-1---|
|-0-1-4-3-0-1-2-1-0-1-4-3-0-1-2-1-|-0-1-4-3-0-1-2-1-0-1-4-3-0-1-2-1---|


   Chorus A      Chorus A
    Gtrs I, II
    |--3--|
    S S S S E  5x
||-------------||----|
||o-----------o||----|
||--1-1-1-1-1--||----|
||--0-0-0-0-0--||----|
||o-----------o||----|
||-------------||----|


 Chorus B
  Gtrs I, II
  |-3-|   |-3-|
  S S S E S S S E
|--------------------|
|--------------------|
|-1-1-1-1-1-1-1-1----|
|-0-0-0-0-0-0-0-0----|
|--------------------|
|--------------------|


  Wx2
|--------|
|--------|
|--------|
|--------|
|--------|
|--------|


  Gtr II
  E E E E E E E E
|-----------------|----|
|-----------------|----|
|-----------------|----|
|-------0-----2-1-|----|
|-----0---1-0-----|----|
|-0-3-------------|----|


 Pre Solo
  PM------------------------------|
  S E S E S E S E S E S   E S E S E E E E
|-----------------------|--------------------|
|-----------------------|--------------------|
|-----------------------|--------------------|
|-----------------------|--------------------|
|-----------------------|-----------1-2-3----|
|-0-0-0-0-0-0-0-0-0-0-0-|-0-0-0-0-0-1-2-3----|
|
| PM------------------------------|
| S E S E S E S E S E S   E S E S E E E E
|-----------------------|--------------------|
|-----------------------|--------------------|
|-----------------------|--------------------|
|-----------------------|--------------------|
|-----------------------|-----------1-2-3----|
|-0-0-0-0-0-0-0-0-0-0-0-|-0-0-0-0-0-1-2-3----|


 Solo - KING
 4/4
  Gtr I
   ~~
   E
|-------|
|-------|
|-------|
|-------|
|-17----|
|-------|


  S E   S E S  E  S  E    E  E  E
|---------------------------------|
|---------------------------------|
|---------------------------------|
|---------------------------------|
|-------------------------0--1--2-|
|-0-0---0-0-0--0--0--0----0--1--2-|
|
| TP      TP      TP            TP
| S Q   S E S  E  S  E    E  E  E
|------------------------------17-|
|---------------------------------|
|-7-7--10-9-7-10--7-(7)--10-10----|
|---------------------------------|
|---------------------------------|
|---------------------------------|


   S E    S  E  S E    S E   E     E      E
|----------------------------------------------|
|----------------------------------------------|
|----------------------------------------------|
|----------------------------------------------|
|----------------------------0-----1------2----|
|--0-0----0--0--0-0----0-0---0-----1------2----|
|
|  TP   TP   TP TP   TP
|  E    Q    E  E    Q       E     E      E
|-16--------17-16-----------20b22-22pb24-22----|
|------18-----------18-------------------------|
|----------------------------------------------|
|----------------------------------------------|
|----------------------------------------------|
|----------------------------------------------|


  Gtr I
   S  S  S  S  S  S  S  S  S  S  S  S  S  S  E  E  E
|-15-19p17p15-16-20p18p16-17-21p19p17-18-22p20p18-22\-|----|
|-----------------------------------------------------|----|
|-----------------------------------------------------|----|
|-----------------------------------------------------|----|
|-----------------------------------------------------|----|
|-----------------------------------------------------|----|
|
| Gtr II
|  TP          TP          TP
|  E     E     E     E     E     E     S  S  E  E  E
|-----------------------------------------------------|----|
|-----------------------------------------------------|----|
|-----------------------------------------------------|----|
|-----------------------------------------------------|----|
|--------------------------------------------0--1--2--|----|
|--0-----0-----0-----0-----0-----0-----0--0--0--1--2--|----|


  Gtr I
   |--3--|                        |---3---|  |3-|
   T  T  S  S  S    T  T  T  S    T  S    S  T  S    T  T  T  T  T  T  T  T  E
|-19p17p16---------------------------------------------------------------------|
|----------19p16---19p16-17p16---19p17p==16------------------------------------|
|-------------------------------------------18p16p==15-16h18-15-13-14h17-14-13-|
|------------------------------------------------------------------------------|
|------------------------------------------------------------------------------|
|------------------------------------------------------------------------------|
|
| Gtr II
|  TP            TP       TP
|  S        E    S     E  S    E       S     E    E  E  E
|------------------------------------------------------------------------------|
|------------------------------------------------------------------------------|
|------------------------------------------------------------------------------|
|------------------------------------------------------------------------------|
|-------------------------------------------------0--1--2----------------------|
|--0--------0----0-----0--0----0-------0-----0----0--1--2----------------------|


|----|
|----|
|----|
|----|
|----|
|----|
|
|----|
|----|
|----|
|----|
|----|
|----|


  Gtr I
                                                          ~
   |--3--|     |3-|       |3-|
   S  S  S  S  S  S  S    S  S  S    S  S     E   E E E E H
|-----------------------------------------------------------|----|
|-----------------------------------------------------------|----|
|---------------------------------------------------6---7-6-|----|
|-13p12h13h15-12h13h15---12h13h15---13p12-----8---7---8-----|----|
|-----------------------------------------------------------|----|
|-----------------------------------------------------------|----|
|
| Gtr II
|  TP          TP            TP
|  S        E  S       E     S    E       S E   E Q Q
|-----------------------------------------------------------|----|
|-----------------------------------------------------------|----|
|-----------------------------------------------------------|----|
|-----------------------------------------------------------|----|
|-----------------------------------------------0-1-2-------|----|
|--0--------0--0-------0-----0----0-------0-0---0-1-2-------|----|


  Gtr I
      ~~~~         ~~                    ~~
   S  E     S E  S E    S E S  E  E   E  E
|------------------------------------------|
|---------------------------9-10-10\-13-13-|
|------------------------------------------|
|-10p<7>h==10p7h10p7h==10p7----------------|
|------------------------------------------|
|------------------------------------------|
|
| Gtr II
|  TP         TP     TP
|  S     E    S  E   S    E S  E  E   E  E
|------------------------------------------|
|------------------------------------------|
|------------------------------------------|
|------------------------------------------|
|---------------------------------0---1--2-|
|--0-----0----0--0---0----0-0--0--0---1--2-|


                                                  ~~
   S  S  E  S  S  E  S  S  S  E  S  E  E   E      Q
|----10-11-10----10-11-13-15-16-18-23-23-<21>b23-23-|----|
|-12----------12------------------------------------|----|
|---------------------------------------------------|----|
|---------------------------------------------------|----|
|---------------------------------------------------|----|
|---------------------------------------------------|----|
|
|  S     E     S  E     S     E  S  E  E   E      E
|---------------------------------------------------|----|
|---------------------------------------------------|----|
|---------------------------------------------------|----|
|---------------------------------------------------|----|
|--------------------------------------0---1------2-|----|
|--0-----0-----0--0-----0-----0--0--0--0---1------2-|----|


  Gtr I
   S  S  S  S  S  S  S  S  S  S  S  S  S  S  E  E  E
|-20-18-17-------------17-18-20-18-17----------------|
|----------20-17-18-20----------------20-17-18-20-19-|
|----------------------------------------------------|
|----------------------------------------------------|
|----------------------------------------------------|
|----------------------------------------------------|
|
| Gtr II
|  TP          TP          TP
|  S     E     S     E     S     E     S  E  E  E  E
|----------------------------------------------------|
|----------------------------------------------------|
|----------------------------------------------------|
|----------------------------------------------------|
|--------------------------------------------0--1--2-|
|--0-----0-----0-----0-----0-----0-----0--0--0--1--2-|


                                                   ~~
   S  S  S  S  S  S  S  S  S  S  S  S  S    E   E  Q
|-------------------21-------------------------------|
|-21-18-21-22-23-24----24-23-21----------------------|
|-------------------------------22-23-23---22\-23-23-|
|----------------------------------------------------|
|----------------------------------------------------|
|----------------------------------------------------|
|
|  TP          TP          TP
|  S     E     S     E     S     E     S E  E   E  E
|----------------------------------------------------|
|----------------------------------------------------|
|----------------------------------------------------|
|----------------------------------------------------|
|-------------------------------------------0---1--2-|
|--0-----0-----0-----0-----0-----0-----0-0--0---1--2-|


  Gtr I
   E     E     E     E     E     E     E
|-------------------------------------------|
|-20----21----20----21----20----21----20----|
|-20b22r21b23r20b22r21b23r20b22r21b23r20----|
|-------------------------------------------|
|-------------------------------------------|
|-------------------------------------------|


  Gtr I
                                                                            ~~~~
   S  S  E  S  S  S  E  S  S  E  S  S  E  S  S  E  S  S  S  S  S  S  S  S   H
|-16p14p12h16p14p12h17p15p13h18p16p14h19p17p15h20p18p16h21p19p17h21p19p17---------|
|---------------------------------------------------------------------------------|
|---------------------------------------------------------------------------------|
|---------------------------------------------------------------------------------|
|---------------------------------------------------------------------------------|
|-------------------------------------------------------------------------<12>----|


   Chorus A
    |--3--|
    S S S S E  5x
||-------------||----|
||o-----------o||----|
||--1-1-1-1-1--||----|
||--0-0-0-0-0--||----|
||o-----------o||----|
||-------------||----|


 Chorus B
  |-3-|   |-3-|
  S S S E S S S E
|--------------------|
|--------------------|
|-1-1-1-1-1-1-1-1----|
|-0-0-0-0-0-0-0-0----|
|--------------------|
|--------------------|


 Drum Fill 3
  Wx2
|--------|
|--------|
|--------|
|--------|
|--------|
|--------|


   Verse
    E E E E E E E E E E E E E E E E   E E E E E E E E E E E E E E E E   4x
||----------------------------------|-----------------------------------||
||o---------------------------------|----------------------------------o||
||----------------------------------|-----------------------------------||
||----------------------------------|-----------------------------------||
||o---------------------------------|----------------------------------o||
||--0-0-0-0-0-0-0-0-0-0-0-0-0-0-0-0-|-0-0-0-0-0-0-0-0-0-0-0-0-0-0-0-0---||
|
|   E Q     E Q     E E E E E E E E   E Q     E Q     E E E E E E E E   4x
||----------------------------------|-----------------------------------||
||o---------------------------------|----------------------------------o||
||----------------------------------|-----------------------------------||
||--0-0-----2-3---------------------|-0-0-----2-3-----------------------||
||o-----------------4-4-4-4-4-4-4-4-|-----------------4-4-4-4-4-4-4-4--o||
||----------------------------------|-----------------------------------||


 Pre Chorus
  E E E E E E E E E E E E E E E E   E E E E E E E E E E E E E E E E
|---------------------------------|-----------------------------------|
|---------------------------------|-----------------------------------|
|---------------------------------|-----------------------------------|
|---------------------------------|-----------------------------------|
|-0-1-4-3-0-1-0-3-0-1-4-3-0-1-0-3-|-0-1-4-3-0-1-0-3-0-1-4-3-0-1-0-3---|
|-0-1-4-3-0-1-0-3-0-1-4-3-0-1-0-3-|-0-1-4-3-0-1-0-3-0-1-4-3-0-1-0-3---|


  E E E E E E E E E E E E E E E E   E E E E E E E E E E E E E E E E
|---------------------------------|-----------------------------------|
|---------------------------------|-----------------------------------|
|---------------------------------|-----------------------------------|
|---------------------------------|-----------------------------------|
|-0-1-4-3-0-1-2-1-0-1-4-3-0-1-2-1-|-0-1-4-3-0-1-2-1-0-1-4-3-0-1-2-1---|
|-0-1-4-3-0-1-2-1-0-1-4-3-0-1-2-1-|-0-1-4-3-0-1-2-1-0-1-4-3-0-1-2-1---|



Duration Legend
---------------
W - whole; H - half; Q - quarter; E - 8th; S - 16th; T - 32nd; X - 64th; a - acciaccatura
+ - note tied to previous; . - note dotted; .. - note double dotted
Uncapitalized letters represent notes that are staccato (1/2 duration)
Irregular groupings are notated above the duration line
Duration letters will always appear directly above the note/fret number it represents the
duration for.  Duration letters with no fret number below them represent rests.  Multi-
bar rests are notated in the form Wxn, where n is the number of bars to rest for.  Low
melody durations appear below the staff

Tablature Legend
----------------
 h   - hammer-on
 p   - pull-off
 b   - bend
 pb  - pre-bend
 r   - bend release (if no number after the r, then release immediately)
 /\  - slide into or out of (from/to "nowhere")
 s   - legato slide
 S   - shift slide
 - natural harmonic
[n]  - artificial harmonic
n(n) - tapped harmonic
 ~   - vibrato
 tr  - trill
 T   - tap
 TP  - trem. picking
 PM  - palm muting
\n/  - tremolo bar dip; n = amount to dip
 \n  - tremolo bar down
 n/  - tremolo bar up
/n\  - tremolo bar inverted dip
 =   - hold bend; also acts as connecting device for hammers/pulls
 <> - volume swell (louder/softer)
 x   - on rhythm slash represents muted slash
 o   - on rhythm slash represents single note slash

Misc Legend
-----------
 |  - bar
||  - double bar
||o - repeat start
o|| - repeat end
*|  - double bar (ending)
 :  - bar (freetime)
 $  - Segno
 &  - Coda
Tempo markers -  = BPM(8/16=s8/s16), where s8 = swing 8ths, s16 = swing 16ths


** Generated using Power Tab Editor by Brad Larsen: The Official Power Tab Web Site
Tap to rate this tab
# A B C D E F G H I J K L M N O P Q R S T U V W X Y Z