Song name
# A B C D E F G H I J K L M N O P Q R S T U V W X Y Z

Slayer - World Painted Blood tab

-------------------------------------------------------------------------------
WORLD PAINTED BLOOD - Slayer
-------------------------------------------------------------------------------
Tabbed by: CC Josh
Email: bezerrk@hotmail.com

Tuning: Half-Step Down Eb G# C# F# Bb eb

This is my first tab and I tabbed this by ear, took me hours. I only did
the rhythm because the solo doesnt make sense. I also didn't mention
all the areas to palm mute but it's pretty obvious.

Note: Also in the part at 4:06 for anyone who doesn't understand what it means, basically
pick really fast from 15 down to 2, then really quickly slide from 2 up to 15, then down to
2 again. Just listen to the song, it'll make more sense.

Any questions or suggestions for change just leave a comment.

Intro (00:25)

eb |-----------------------------------------------|
Bb |-----------------------------------------------|
F# |-----------------------------------------------|
C# |-----------------------------------------------|        6x
G# |-7---------6-----------------------------------|
Eb |------------------------7-----8-----7-5--------|


Verse 1 (00:56)

eb |-----------------------------------------------------------------|
Bb |-----------------------------------------------------------------|
F# |-----------------------------------------------------------------|    (PM all)
C# |-----------------------------------------------------------------|       5x
G# |-----------------------------------------------------------------|
Eb |-000-0-0-0-0-000-000-0-0-0-0-000-000-0-0-0-0-000-1111111144444444|


Bridge 1 (1:23)

eb |-----------------------------------------------------------------|
Bb |-----------------------------------------------------------------|
F# |-----------------------------------------------------------------|
C# |-----------------------------------------------------------------|
G# |-----------------------------------------------------------------|
Eb |-333-3-333-3-333-222-2-222-2-222-333-3-333-3-333-666-6-555-5-565-|
                                                                          (PM all)
eb |-----------------------------------------------------------------|
Bb |-----------------------------------------------------------------|
F# |-----------------------------------------------------------------|
C# |-----------------------------------------------------------------|
G# |-----------------------------------------------------------------|
Eb |-333-3-333-3-333-222-2-222-2-222-333-3-333-3-333-666-6-5555555555|


Verse 2 (1:34)

eb |-----------------------------------------------------------------|
Bb |-----------------------------------------------------------------|
F# |-----------------------------------------------------------------|    (PM all)
C# |-----------------------------------------------------------------|       4x
G# |-----------------------------------------------------------------|
Eb |-000-0-0-0-0-000-000-0-0-0-0-000-000-0-0-0-0-000-1111111144444444|


Bridge 2 (1:53)

eb |-----------------------------------------------------------------|
Bb |-----------------------------------------------------------------|
F# |-----------------------------------------------------------------|
C# |-----------------------------------------------------------------|
G# |-----------------------------------------------------------------|
Eb |-333-3-333-3-333-222-2-222-2-222-333-3-333-3-333-666-6-555-5-565-|
                                                                          (PM all)
eb |-----------------------------------------------------------------|
Bb |-----------------------------------------------------------------|
F# |-----------------------------------------------------------------|
C# |-----------------------------------------------------------------|
G# |-----------------------------------------------------------------|
Eb |-333-3-333-3-333-222-2-222-2-222-333-3-333-3-333-666-6-5555555555|


Chorus (2:04)

eb |-----------------------------------------------------------------|
Bb |-----------------------------------------------------------------|
F# |-----------------------------------------------------------------|
C# |-2p0-0-0-0-0-0-0-0h2-2-2/3-3-3/6-6\5-5-5-5-5-5-5-5\3-3-----------|       3x
G# |-------------------------------------------------------4-4-4-4-4-|
Eb |-----------------------------------------------------------------|


Verse 3 (2:19)

eb |-----------------------------------------------------------------|
Bb |-----------------------------------------------------------------|
F# |-----------------------------------------------------------------|
C# |-----------------------------------------------------------------|
G# |-7h8-------------7h8---8h10---7h8-7h8-------------7p5--2-3-3-3-3-|
Eb |-----0-0-0-0-0-0-----0------0---------0-0-0-0-0-0----0-0-1-1-1-1-|
                                                                             2x
eb |-----------------------------------------------------------------|
Bb |-----------------------------------------------------------------|
F# |-----------------------------------------------------------------|
C# |-----------------------------------------------------------------|
G# |-7h8-------------7h8---8h10---7h8-7h8-------------7p5--2-6-6-6-6-|
Eb |-----0-0-0-0-0-0-----0------0---------0-0-0-0-0-0----0-0-4-4-4-4-|


2x Chorus (2:41)


Verse 4 (2:52)

eb |-----------------------------------------------------------------|
Bb |-----------------------------------------------------------------|
F# |-----------------------------------------------------------------|
C# |-----------------------------------------------------------------|
G# |-7h8-------------7h8---8h10---7h8-7h8-------------7p5--2-3-3-3-3-|
Eb |-----0-0-0-0-0-0-----0------0---------0-0-0-0-0-0----0-0-1-1-1-1-|
                                                                             2x
eb |-----------------------------------------------------------------|
Bb |-----------------------------------------------------------------|
F# |-----------------------------------------------------------------|
C# |-----------------------------------------------------------------|
G# |-7h8-------------7h8---8h10---7h8-7h8-------------7p5--2-6-6-6-6-|
Eb |-----0-0-0-0-0-0-----0------0---------0-0-0-0-0-0----0-0-4-4-4-4-|


2x Chorus (3:14)


Solo Rhythm 1 (3:22)

eb |-----------------------------------------------------------------|
Bb |-----------------------------------------------------------------|
F# |-----------------------------------------------------------------|
C# |----------------------------------------------------5-5-5-6-6-3-3|       4x
G# |-5-x-----------5--5-x------------5-5-5-x------------3-3-3-4-4-1-1|
Eb |-3-x-----------3--3-x------------3-3-3-x-------------------------|


Solo Rhythm 2 (3:45)

eb |-----------------------------------------------------------------|
Bb |-----------------------------------------------------------------|
F# |-----------------------------------------------------------------|
C# |----------------------------------------------------4-4-4-5-5-2-2|       4x
G# |-4-x-----------4--4-x------------4-4-4-x------------2-2-2-3-3-0-0|
Eb |-2-x-----------2--2-x------------2-2-2-x-------------------------|


(After 4th time) (4:06)

eb |-----------------------------------------------------------------|
Bb |-----------------------------------------------------------------|
F# |-----------------------------------------------------------------|
C# |-3------------------------------15\\\\\\\\\\\\\\\\\\\\\\\\2/15\2-|
G# |-3---------------------------------------------------------------|
Eb |-1---------------------------------------------------------------|
     ~~~~~~~~~~~~~~~~~~~~~~~Let Ring


Breakdown (4:12)

eb |-----------------------------------------------------------------|
Bb |-----------------------------------------------------------------|
F# |----------------------------------------------------4-4-4-5-5-2-2|
C# |----------------------------------------------------2-2-2-3-3-0-0|       8x
G# |-2-x-----------2--2-x------------2-2-2-x-------------------------|
Eb |-0-x-----------0--0-x------------0-0-0-x-------------------------|


Verse 5 (4:54)

eb |-----------------------------------------------------------------|
Bb |-----------------------------------------------------------------|
F# |-----------------------------------------------------------------|    (PM all)
C# |-----------------------------------------------------------------|       4x
G# |-----------------------------------------------------------------|
Eb |-000-0-0-0-0-000-000-0-0-0-0-000-000-0-0-0-0-000-1111111144444444|


Bridge 3 (5:10)

eb |-----------------------------------------------------------------|
Bb |-----------------------------------------------------------------|
F# |-----------------------------------------------------------------|
C# |-----------------------------------------------------------------|
G# |-----------------------------------------------------------------|
Eb |-333-3-333-3-333-222-2-222-2-222-333-3-333-3-333-666-6-555-5-565-|
                                                                          (PM all)
eb |-----------------------------------------------------------------|
Bb |-----------------------------------------------------------------|
F# |-----------------------------------------------------------------|
C# |-----------------------------------------------------------------|
G# |-----------------------------------------------------------------|
Eb |-333-3-333-3-333-222-2-222-2-222-333-3-333-3-333-666-6-5555555555|


2x Chorus (5:21)


Outro Riff (5:32)

eb |-----------------------------------------------------------------|
Bb |-----------------------------------------------------------------|
F# |-----------------------------------------------------------------|
C# |-----------------------------------------------------------------|       2x
G# |-5\3-3-3-3-3-3-3-3/5-5-5/6-6-6/9-9\8-8-8-8-8-8-8-8\5-5-2-2-2-2-2-|
Eb |-3\1-1-1-1-1-1-1-1/3-3-3/4-4-4/7-7\6-6-6-6-6-6-6-6\3-3-0-0-0-0-0-|

eb |-----------------------------------------------------------------|
Bb |-----------------------------------------------------------------|
F# |-----------------------------------------------------------------|
C# |-----------------------------------------------------------------|
G# |-5\3-3-3-3-3-3-3-3/5-5-5/6-6-6/9-9\8-8-8-8-8-8-8-2-3-3-2-3-x-----|
Eb |-3\1-1-1-1-1-1-1-1/3-3-3/4-4-4/7-7\6-6-6-6-6-6-6-0-1-1-0-1-x-----|

| /  slide up
| \  slide down
| h  hammer-on
| p  pull-off
| x  Mute note


So yeah that's it, pretty easy song overall. Hope people find this helpful.
Tap to rate this tab
 
# A B C D E F G H I J K L M N O P Q R S T U V W X Y Z