Song name
# A B C D E F G H I J K L M N O P Q R S T U V W X Y Z

Slayer - Human Strain tab

intro
guitar 1
|---------------------------------------------|
|---------------------------------------------|
|---------------------------------------------|
|---------------------------------------------|
|-10-9--10-9--13-12-13-12-10-9--10-9--13-12-8-|
|-0--0--0--0--0--0--0--0--0--0--0--0--0--0--6-|

guitar 2
|---------------------------------------------|
|---------------------------------------------|
|---------------------------------------------|
|---------------------------------------------|
|-------------------------------------------8-|
|-------------------------------------------6-|

guitar 1
|--------------------------------------------|
|--------------------------------------------|
|--------------------------------------------|
|--------------------------------------------|
|-10-9--10-9--13-12-13-12-10-9--10-9-3-2-1-2-|
|-0--0--0--0--0--0--0--0--0--0--0--0-3-2-1-2-|

guitar 2
|--------------------------------------------|
|--------------------------------------------|
|--------------------------------------------|
|--------------------------------------------|
|------------------------------------3-2-1-2-|
|------------------------------------3-2-1-2-|

guitar 1
|--------------------------------------------|
|--------------------------------------------|
|--------------------------------------------|
|--------------------------------------------|
|-10-9--10-9--13-12-13-12-10-9--10-9-8-7-8-7-|
|-0--0--0--0--0--0--0--0--0--0--0--0-6-5-6-5-|

guitar 2
|--------------------------------------------|
|--------------------------------------------|
|--------------------------------------------|
|--------------------------------------------|
|------------------------------------8-7-8-7-|
|------------------------------------6-5-6-5-|

guitar 1
|-----------------------------------------|
|-----------------------------------------|
|-----------------------------------------|
|-------------------------1-----2-----3---|
|-10-9--10-9--13-12-13-12-1-3-2-2-4-3-3-5-|
|-0--0--0--0--0--0--0--0----3-2---4-3---5-|

guitar 2
|-----------------------------------------|
|-----------------------------------------|
|-----------------------------------------|
|-------------------------1-----2-----3---|
|-------------------------1-3-2-2-4-3-3-5-|
|---------------------------3-2---4-3---5-|

guitar 1
|---------------------------------------------|
|---------------------------------------------|
|---------------------------------------------|
|---------------------------------------------|
|-10-9--10-9--13-12-13-12-10-9--10-9--13-12-8-|
|-0--0--0--0--0--0--0--0--0--0--0--0--0--0--6-|

guitar 2
|---------------------------------------------|
|---------------------------------------------|
|---------------------------------------------|
|---------------------------------------------|
|-2-----------------------------------------8-|
|-0-----------------------------------------6-|

guitar 1
|--------------------------------------------|
|--------------------------------------------|
|--------------------------------------------|
|--------------------------------------------|
|-10-9--10-9--13-12-13-12-10-9--10-9-3-2-1-2-|
|-0--0--0--0--0--0--0--0--0--0--0--0-3-2-1-2-|

guitar 2
|--------------------------------------------|
|--------------------------------------------|
|--------------------------------------------|
|--------------------------------------------|
|-2----------------------------------3-2-1-2-|
|-0----------------------------------3-2-1-2-|

guitar 1
|---------------------------------------------|
|---------------------------------------------|
|---------------------------------------------|
|---------------------------------------------|
|-10-9--10-9--13-12-13-12-10-9--10-9--13-12-8-|
|-0--0--0--0--0--0--0--0--0--0--0--0--0--0--6-|

guitar 2
|---------------------------------------------|
|---------------------------------------------|
|---------------------------------------------|
|---------------------------------------------|
|-2-----------------------------------------8-|
|-0-----------------------------------------6-|

guitar 1
|-----------------------------------------|
|-----------------------------------------|
|-----------------------------------------|
|-------------------------1-----2-----3---|
|-10-9--10-9--13-12-13-12-1-3-2-2-4-3-3-5-|
|-0--0--0--0--0--0--0--0----3-2---4-3---5-|

guitar 2
|-----------------------------------------|
|-----------------------------------------|
|-----------------------------------------|
|-------------------------1-----2-----3---|
|-2-----------------------1-3-2-2-4-3-3-5-|
|-0-------------------------3-2---4-3---5-|

verse                                     x3
|-------------------------------------------------------------|
|-------------------------------------------------------------|
|-------------------------------------------|-----------------|
|-------------------------------------------|            -----|
|-10-9--10-9--10-9--13-12-10-9--10-9--13-12-|            -----|
|-0--0--0--0--0--0--0--0--0--0--0--0--0--0--|            -----|  x2
                                                          |
                    x1                                    |
|---------------------|                                  ---|
|---------------------|                                  ---|
|---------------------|-------------------------------------|
|-----------------------------------------------------------|
|-10-9--10-9--10-9--8---------------------------------------|
|-0--0--0--0--0--0--6---------------------------------------|

chorus
|-----------------------------------------------------------------|
|-----------------------------------------------------------------|
|-----------------------------------------------------------------|
|-----------------------------------------------------------------|
|-5-4-5---8-7-8---5-4-5---8-7-8---5-4-5---8-7-8---22-22-22-22-222-|
|-3-2-3-0-6-5-6-0-3-2-3-0-6-5-6-0-3-2-3-0-6-5-6-0-00-00-00-00-000-|
        .       .       .       .       .       . .. .. .. .. ...

guitar 1
|---------------------------------|
|---------------------------------|
|---------------------------------|
|---------------------------------|
|-2-2-2-2-2-2-2-2-2-2-2-2-2-2-2-2-|
|-0-0-0-0-0-0-0-0-0-0-0-0-0-0-0-0-|

guitar 2
|-1212121211111111-----------------|
|----------------------------------|
|-----------------1212121211111111-|
|----------------------------------|
|----------------------------------|
|----------------------------------|

guitar 2
|----------------------------------|
|----------------------------------|
|----------------------------------|
|-2-------5-------4-------3--------|
|-2-------5-------4-------3--------|
|-0-------3-------2-------1--------|

guitar 2
|-121212121515151514141414---------|
|-------------------------16161616-|
|----------------------------------|
|----------------------------------|
|----------------------------------|
|----------------------------------|
Tap to rate this tab
 
# A B C D E F G H I J K L M N O P Q R S T U V W X Y Z