Song name
# A B C D E F G H I J K L M N O P Q R S T U V W X Y Z

Slayer - Playing With Dolls tab

song-playing with dolls
album-world painted blood
band-slayer

guitar 1
|-------------------------66665555-|
|-555555558888777755555555---------|
|----------------------------------|
|----------------------------------|
|----------------------------------|
|----------------------------------|

guitar 2(joins in later)
|-----------------|
|-----------------|
|-4-------3-------|
|-------------5---|
|-2-------1---5---|
|-------------3---|

chorus
|-----------------------------------------------------|
|-----------------------------------------------------|
|-----------------------------------------------------|
|-------------------------------------------------4-3-|
|---------1-0---------1-0---------2-1---------2-1-----|
|-0-3-0-3-----0-3-0-3-----0-3-0-3-----0-3-0-3---------|
  . . . .     . . . .     . . . .     . . . . . .

|----------------------------------|
|----------------------------------|
|----------------------------------|
|----------------------------------|
|-9-101010101010101313131312121212-|
|-0-0-0-0-0-0-0-0-0-0-0-0-0-0-0-0--|
  . . . . . . . . . . . . . . . .

guitar 1
|-------------------------66665555-|
|-555555558888777755555555---------|
|----------------------------------|
|----------------------------------|
|----------------------------------|
|----------------------------------|

guitar 2
|--------------------------------------------|
|--------------------------------------------|
|--------------------------------------------|
|--------------------------------------------|
|-222-2-2-2--222--222----222-2-2-2--222--222-|
|-000-0-0-0--000--000----000-0-0-0--000--000-|
  ... . . .  ...  ...    ... . . .  ...  ...

|----------------------------------|
|----------------------------------|
|----------------------------------|
|----------------------------------|
|----------------------------------|
|-33333333333333334444444411111111-|
  ................................

|----------------------------------|
|----------------------------------|
|----------------------------------|
|----------------------------------|
|----------------------------------|
|-66666666666666667777777744444444-|
  ................................
Tap to rate this tab
# A B C D E F G H I J K L M N O P Q R S T U V W X Y Z