Song name
# A B C D E F G H I J K L M N O P Q R S T U V W X Y Z

Slayer - Unit 731 tab

intro Guitar 1
eb|----------------------------------|
Bb|----------------------------------|
Gb|----------------------------------|
Db|----------------------------------|
Ab|-------------5555------------5555-|
Eb|-000066667777----000066667777-----|


Guitar 1
eb|----------------------------------|
Bb|----------------------------------|
Gb|----------------------------------|
Db|----------------------------------|
Ab|-------------5555------------5555-|
Eb|-000066667777----000066667777-----|


Guitar 2
eb|----------------------------------|
Bb|----------------------------------|
Gb|----------------------------------|
Db|-----------------9----------------|
Ab|-----------------7----------------|
Eb|----------------------------------|


Guitar 1
eb|----------------------------------|
Bb|----------------------------------|
Gb|----------------------------------|
Db|----------------------------------|
Ab|-------------5555------------5555-|
Eb|-000066667777----000066667777-----|


Guitar 2
eb|----------------------------------|
Bb|----------------------------------|
Gb|----------------------------------|
Db|-99--------------999--------------|
Ab|-77--------------777--------------|
Eb|----------------------------------|


riff B x4
eb|---------------------------------------------------------------|
Bb|---------------------------------------------------------------|
Gb|---------------------------------------------------------------|
Db|-9------11-----12/11\12----------9------11-----12/11\15--------|
Ab|-7------9------10/9-\10----------7------9------10/9-\13------8-|
Eb|--000000-000000--------0000000000-000000-000000--------0000006-|


riff C x2
eb|--------------------------------------------------------------|
Bb|--------------------------------------------------------------|
Gb|--------------------------------------------------------------|
Db|--------------------------------------------------------------|
Ab|------------------------------------------------------------7-|
Eb|-000000003333333322222222222211100000000333333332222222222225-|


riff B x4
eb|---------------------------------------------------------------|
Bb|---------------------------------------------------------------|
Gb|---------------------------------------------------------------|
Db|-9------11-----12/11\12----------9------11-----12/11\15--------|
Ab|-7------9------10/9-\10----------7------9------10/9-\13------8-|
Eb|--000000-000000--------0000000000-000000-000000--------0000006-|


riff C x2
eb|--------------------------------------------------------------|
Bb|--------------------------------------------------------------|
Gb|--------------------------------------------------------------|
Db|--------------------------------------------------------------|
Ab|------------------------------------------------------------7-|
Eb|-000000003333333322222222222211100000000333333332222222222225-|

intro riff x8
eb|----------------------------------|
Bb|----------------------------------|
Gb|----------------------------------|
Db|----------------------------------|
Ab|-------------5555------------5555-|
Eb|-000066667777----000066667777-----|

solo

x8
eb|------------------|
Bb|------------------|
Gb|------------------|
Db|------------------|
Ab|------------------|
Eb|-0000777788887777-|


eb|--------------------------------------|
Bb|--------------------------------------|
Gb|--------------------------------------|
Db|--------------------------------------|
Ab|--------------------------------------|
Eb|-000010101010999988880000555588887777-|


riff D x8
eb|----------------------|
Bb|----------------------|
Gb|----------------------|
Db|----------------------|
Ab|-2----9p8---8p7---7p6-|
Eb|-0-000---000---000----|

x8
eb|----------------------------------|
Bb|----------------------------------|
Gb|----------------------------------|
Db|----------------------------------|
Ab|-------------5555------------5555-|
Eb|-000066667777----000066667777-----|

x2
eb|--------------------------------------------------------------|
Bb|--------------------------------------------------------------|
Gb|--------------------------------------------------------------|
Db|--------------------------------------------------------------|
Ab|------------------------------------------------------------7-|
Eb|-000000003333333322222222222211100000000333333332222222222225-|


x4
eb|---------------------------------------------------------------|
Bb|---------------------------------------------------------------|
Gb|---------------------------------------------------------------|
Db|-9------11-----12/11\12----------9------11-----12/11\15--------|
Ab|-7------9------10/9-\10----------7------9------10/9-\13------8-|
Eb|--000000-000000--------0000000000-000000-000000--------0000006-|
Tap to rate this tab
# A B C D E F G H I J K L M N O P Q R S T U V W X Y Z