Song name
# A B C D E F G H I J K L M N O P Q R S T U V W X Y Z

Slayer - Human Strain tab

This is my favorite song on the new album, and I wanted to tab it out. I tabbed it out 
one guitar playing the main parts, but for the little section at 2:03-2:18 I listed what 
guitars are playing as I felt it necessary.

Intro
|-----------------------------------------------|
|-----------------------------------------------|
|-----------------------------------------------|
|-----------------------------------------------|
|--10-9-10-9-13-12-13-12-10-9-10-9-13-12-8------|
|--0--0-0--0-0--0--0--0--0--0-0--0-0--0--6------|

|-----------------------------------------------|
|-----------------------------------------------|
|-----------------------------------------------|
|-----------------------------------------------|
|--10-9-10-9-13-12-13-12-10-9-10-9-10-9-8-10----|
|--0--0-0--0-0--0--0--0--0--0-0--0-8--7-6-8-----|

|-------------------------------------------------|
|-------------------------------------------------|
|-------------------------------------------------|
|-------------------------------------------------|
|--10-9-10-9-13-12-13-12-10-9-10-9-13-12-13-12----|
|--0--0-0--0-0--0--0--0--0--0-0--0-0--0--0--0-----|

|-----------------------------------------------|
|-----------------------------------------------|
|-----------------------------------------------|
|-----------------------------------------------|
|--10-9-10-9-13-12-13-12-10-9-8-11-10-9-12-10---|
|--0--0-0--0-0--0--0--0--8--7-6-9--8--7-10-8----|

|-----------------------------------------------|
|-----------------------------------------------|
|-----------------------------------------------|
|-----------------------------------------------|
|--10-9-10-9-13-12-13-12-10-9-10-9-13-12-8------|
|--0--0-0--0-0--0--0--0--0--0-0--0-0--0--6------|

|-----------------------------------------------|
|-----------------------------------------------|
|-----------------------------------------------|
|-----------------------------------------------|
|--10-9-10-9-13-12-13-12-10-9-10-9-10-9-8-10----|
|--0--0-0--0-0--0--0--0--0--0-0--0-8--7-6-8-----|

|-----------------------------------------------|
|-----------------------------------------------|
|-----------------------------------------------|
|-----------------------------------------------|
|--10-9-10-9-13-12-13-12-10-9-10-9-13-12-8------|
|--0--0-0--0-0--0--0--0--0--0-0--0-0--0--6------|

|-----------------------------------------------|
|-----------------------------------------------|
|-----------------------------------------------|
|-----------------------------------------------|
|--10-9-10-9-13-12-13-12-10-9-8-11-10-9-12-10---|
|--0--0-0--0-0--0--0--0--8--7-6-9--8--7-10-8----|

Verse
|---------------------|    |-------------------|
|---------------------|    |-------------------|
|---------------------|    |-------------------|
|---------------------|    |-------------------|
|-10-9-10-9-10-9-1312-|    |-10-9-10-9-10-9-8--|
|-0--0-0--0-0--0-0-0--|    |-0--0-0--0-0--0-6--|
The first one is played three times, and on the fourth time play the second one. Repeat 
whole thing twice

Chorus
|-------------------------------------------------------------------------|
|-------------------------------------------------------------------------|
|-------------------------------------------------------------------------|
|-------------------------------------------------------------------------|
|-10-9-10-13-12-13-10-9-10-13-12-13-10-9-10-13-12-13----------------------|
|-0--0-0--0--0--0--0--0-0--0--0--0--0--0-0--0--0--0---00-00-00-00-321-----|

Do the same thing you did for the first verse to do the second verse, then do the chorus 
as well. Then play this:

|-------------------------------------------------------|x4
|-------------------------------------------------------|
|-------------------------------------------------------|
|--14-14-14-14-13-13-13-13------------------------------|
|-------------------------------------------------------|
|--------------------------15-15-15-15-14-14-14-14------|

|----------------------------------------------------------------|
|----------------------------------------------------------------|
|----------------------------------------------------------------|
|--5-------9------8-------7------5-------9------8------7---------|
|--5-------9------8-------7------5-------9------8------7---------|
|--3-------7------6-------5------3-------7------6------5---------|
                             or
|---------------------------------------------------------|
|---------------------------------------------------------|
|---------------------------------------------------------|
|-14-14-14-14-17-17-17-17-16-16-16-16-13-13-13-13---------|
|---------------------------------------------------------|
|---------------------------------------------------------|

|-------------------------------------------------------|
|-------------------------------------------------------|
|-------------------------------------------------------|
|--14-14-14-14-13-13-13-13------------------------------|
|-------------------------------------------------------|
|--------------------------15-15-15-15-14-14-14-14------|

|-----------------------------------------------|
|-----------------------------------------------|
|-----------------------------------------------|
|-----------------------------------------------|
|--10-9-10-9-13-12-13-12-10-9-10-9-13-12-8------|
|--0--0-0--0-0--0--0--0--0--0-0--0-0--0--6------|

|-----------------------------------------------|
|-----------------------------------------------|
|-----------------------------------------------|
|-----------------------------------------------|
|--10-9-10-9-13-12-13-12------------------------|
|--0--0-0--0-0--0--0--0--00-00-00-00-321--------|

Play the verse part again like you have the past few times.

|-------------------------------------------------------------------------|
|-------------------------------------------------------------------------|
|-------------------------------------------------------------------------|
|-------------------------------------------------------------------------|
|-10-9-10-13-12-13-10-9-10-13-12-13-10-9-10-13-12-13-10-9-10-13-12-13-----|
|-0--0-0--0--0--0--0--0-0--0--0--0--0--0-0--0--0--0--0--0-0--0--0--0------|

|-------------------------------------------------------------------------|
|-------------------------------------------------------------------------|
|-------------------------------------------------------------------------|
|-------------------------------------------------------------------------|
|-10-9-10-13-12-13-10-9-10-13-12-13-10-9-10-13-12-13----------------------|
|-0--0-0--0--0--0--0--0-0--0--0--0--0--0-0--0--0--0---00-00-00-00-321-----|
Tap to rate this tab
# A B C D E F G H I J K L M N O P Q R S T U V W X Y Z