Song name
# A B C D E F G H I J K L M N O P Q R S T U V W X Y Z

Slayer - Eyes Of The Insane tab

          Slayer - Eyes of the Insane




       E  E  E  S  S E  E   E  E     E  E  E  E  E  E  E  E   
C#||------------------------------|--------------------------|
G#||------------------------------|--------------------------|
E ||*-----------------------------|--------------------------|
B ||*-----------------------------|--------------------------|
F#||---5--5--5--5S-8-8--8S--4--4--|--4--4--4--4--4--4--4--4--|
B ||---0--0--0--0----0--0---0--0--|--0--0--0--0--0--0--0--0--|
       A soldiers           heart    
       Tortured             spirits

  E  E  E  S  S E  E   E  E     E  E  E  E  E  E  E  E   
-----------------------------|--------------------------|
-----------------------------|--------------------------|
-----------------------------|--------------------------|
-----------------------------|--------------------------|
--5--5--5--5S-8-8--8S--4--4--|--4--4--4--4--4--4--4--4--|
--0--0--0--0----0--0---0--0--|--0--0--0--0--0--0--0--0--|
  Reflecting back     at me
  Will not    let     me rest

  E  E  E  S  S E  E   E  E     E  E  E  E  E  E  E  E   
-----------------------------|--------------------------|
-----------------------------|--------------------------|
-----------------------------|--------------------------|
-----------------------------|--------------------------|
--5--5--5--5S-8-8--8S--4--4--|--4--4--4--4--4--4--4--4--|
--0--0--0--0----0--0---0--0--|--0--0--0--0--0--0--0--0--|
  I keep seeing mutilated faces
  These thoughts of mutilated faces

  E  E  E  S  S E  E   E  E     E  E  E  E  E  E  E  E   
-----------------------------|--------------------------|
-----------------------------|--------------------------|
-----------------------------|--------------------------|
-----------------------------|--------------------------|
--5--5--5--5S-8-8--8S--4--4--|--4--4--4--4--4--4--4--4--|
--0--0--0--0----0--0---0--0--|--0--0--0--0--0--0--0--0--|
  Even in my        dreams
  Completely          possessed

  E  E  E  S  S E  E   E  E     E  E  E  E  E  E  E  E   
-----------------------------|--------------------------|
-----------------------------|--------------------------|
-----------------------------|--------------------------|
-----------------------------|--------------------------|
--5--5--5--5S-8-8--8S--4--4--|--4--4--4--4--4--4--4--4--|
--0--0--0--0----0--0---0--0--|--0--0--0--0--0--0--0--0--|
  Distorted         images
  Fragmented         images

  E  E  E  S  S E  E   E  E     E  E  E  E  E  E  E  E   
-----------------------------|--------------------------|
-----------------------------|--------------------------|
-----------------------------|--------------------------|
-----------------------------|--------------------------|
--5--5--5--5S-8-8--8S--4--4--|--4--4--4--4--4--4--4--4--|
--0--0--0--0----0--0---0--0--|--0--0--0--0--0--0--0--0--|
  Flashing        rapidly
  Flashing        rapidly

  E  E  E  S  S E  E   E  E     E  E  E  E  E  E  E  E   
-----------------------------|--------------------------|
-----------------------------|--------------------------|
-----------------------------|--------------------------|
-----------------------------|--------------------------|
--5--5--5--5S-8-8--8S--4--4--|--4--4--4--4--4--4--4--4--|
--0--0--0--0----0--0---0--0--|--0--0--0--0--0--0--0--0--|
  Psychotically abusing me
  Psychotically abusing me

  E  E  E  S  S E  E   E  E     E  E  E  E  E  E  E  E   
-----------------------------|--------------------------|
-----------------------------|--------------------------|
-----------------------------|--------------------------|
-----------------------------|--------------------------|
--5--5--5--5S-8-8--8S--4--4--|--4--4--4--4--4--4--4--4--|
--0--0--0--0----0--0---0--0--|--0--0--0--0--0--0--0--0--|
  Devouring my       brain
  Worming through    my head

  E  E  S  S E  E  E  E  E     E  E  S  S E  E  E  E  E   
----------------------------|----------------------------|
----------------------------|----------------------------|
----------------------------|----------------------------|
--0--1--3S-4-3--0--2--1--3--|--0--1--3S-4-3--0--2--1--3--|
--0--1--3S-4-3--0--2--1--3--|--0--1--3S-4-3--0--2--1--3--|
--0--1--3S-4-3--0--2--1--3--|--0--1--3S-4-3--0--2--1--3--|
  The         eyes of            the insane
  Shell       shock              battle fatigue

  E  E  S  S E  E  E  E  E     E  E  S  S E  E  E  E  E     
----------------------------|-----------------------------||
----------------------------|-----------------------------||
----------------------------|----------------------------*||
--0--1--3S-4-3--0--2--1--3--|--0--1--3S-4-3--0--2--1--3--*||
--0--1--3S-4-3--0--2--1--3--|--0--1--3S-4-3--0--2--1--3---||
--0--1--3S-4-3--0--2--1--3--|--0--1--3S-4-3--0--2--1--3---||
  On a    demented            campaign
  Overwhelming                anxiety

  E  E  S  S E  E  E  E  E     E  E  S  S E  E  E  E  E   
----------------------------|----------------------------|
----------------------------|----------------------------|
----------------------------|----------------------------|
--0--1--3S-4-3--0--2--1--3--|--0--1--3S-4-3--0--2--1--3--|
--0--1--3S-4-3--0--2--1--3--|--0--1--3S-4-3--0--2--1--3--|
--0--1--3S-4-3--0--2--1--3--|--0--1--3S-4-3--0--2--1--3--|
  Flashbacks      panic        attacks

  E  E  S  S E  E  E  E  E     E  E  S  S E  E  E  E  E   
----------------------------|----------------------------|
----------------------------|----------------------------|
----------------------------|----------------------------|
--0--1--3S-4-3--0--2--1--3--|--0--1--3S-4-3--0--2--1--3--|
--0--1--3S-4-3--0--2--1--3--|--0--1--3S-4-3--0--2--1--3--|
--0--1--3S-4-3--0--2--1--3--|--0--1--3S-4-3--0--2--1--3--|
  Death raising        it's ugly          face at me

  S S S S S. E  S S S S S. E.     S S S S S. E  S S S S S. E.   
-------------------------------|-------------------------------|
-------------------------------|-------------------------------|
--7-7-7-7-7-----7-7-7-7-7------|--7-7-7-7-7-----7-7-7-7-7------|
--6-6-6-6-6-----6-6-6-6-6------|--6-6-6-6-6-----6-6-6-6-6------|
--5-5-5-5-5-----5-5-8-5-5------|--5-5-5-5-5-----5-5-8-5-5------|
--6-6-6-6-6-----6-6-6-6-6------|--6-6-6-6-6-----6-6-6-6-6------|
  Got to make    it stop          Can't take it     anymore


  S S S S S. E  S S S S S. E.     S S S S S. E  S S S S S. E.   
-------------------------------|-------------------------------|
-------------------------------|-------------------------------|
--7-7-7-7-7-----7-7-7-7-7------|--7-7-7-7-7-----7-7-7-7-7------|
--6-6-6-6-6-----6-6-6-6-6------|--6-6-6-6-6-----6-6-6-6-6------|
--5-5-5-5-5-----5-5-8-5-5------|--5-5-5-5-5-----5-5-8-5-5------|
--6-6-6-6-6-----6-6-6-6-6------|--6-6-6-6-6-----6-6-6-6-6------|
  The dead keep haunting me     They just keep coming back for more

  E  E  S  S E  E  E  E  E     E  E  S  S E  E  E  E  E   
----------------------------|----------------------------|
----------------------------|----------------------------|
----------------------------|----------------------------|
--0--1--3S-4-3--0--2--1--3--|--0--1--3S-4-3--0--2--1--3--|
--0--1--3S-4-3--0--2--1--3--|--0--1--3S-4-3--0--2--1--3--|
--0--1--3S-4-3--0--2--1--3--|--0--1--3S-4-3--0--2--1--3--|
  The         eyes of            the insane

  E  E  S  S E  E  E  E  E     E  E  S  S E  E  E  E  E     
----------------------------|-----------------------------|
----------------------------|-----------------------------|
----------------------------|-----------------------------|
--0--1--3S-4-3--0--2--1--3--|--0--1--3S-4-3--0--2--1--3---|
--0--1--3S-4-3--0--2--1--3--|--0--1--3S-4-3--0--2--1--3---|
--0--1--3S-4-3--0--2--1--3--|--0--1--3S-4-3--0--2--1--3---|
  On a    demented            campaign

  E  E  S  S E  E  E  E  E     E  E  S  S E  E  E  E  E   
----------------------------|----------------------------|
----------------------------|----------------------------|
----------------------------|----------------------------|
--0--1--3S-4-3--0--2--1--3--|--0--1--3S-4-3--0--2--1--3--|
--0--1--3S-4-3--0--2--1--3--|--0--1--3S-4-3--0--2--1--3--|
--0--1--3S-4-3--0--2--1--3--|--0--1--3S-4-3--0--2--1--3--|
  Flashbacks      panic        attacks

  E  E  S  S E  E  E  E  E     E  E  S  S E  E  E  E  E   
----------------------------|----------------------------|
----------------------------|----------------------------|
----------------------------|----------------------------|
--0--1--3S-4-3--0--2--1--3--|--0--1--3S-4-3--0--2--1--3--|
--0--1--3S-4-3--0--2--1--3--|--0--1--3S-4-3--0--2--1--3--|
--0--1--3S-4-3--0--2--1--3--|--0--1--3S-4-3--0--2--1--3--|
  Death raising        it's ugly          face at me


  S S S S S. E  S S S S S. E.     S S S S S. E  S S S S S. E.   
-------------------------------|-------------------------------|
-------------------------------|-------------------------------|
--7-7-7-7-7-----7-7-7-7-7------|--7-7-7-7-7-----7-7-7-7-7------|
--6-6-6-6-6-----6-6-6-6-6------|--6-6-6-6-6-----6-6-6-6-6------|
--5-5-5-5-5-----5-5-8-5-5------|--5-5-5-5-5-----5-5-8-5-5------|
--6-6-6-6-6-----6-6-6-6-6------|--6-6-6-6-6-----6-6-6-6-6------|
  Got to make    it stop          Can't take it     anymore


  S S S S S. E  S S S S S. E.     S S S S S. E  S S S S S. E.   
-------------------------------|-------------------------------|
-------------------------------|-------------------------------|
--7-7-7-7-7-----7-7-7-7-7------|--7-7-7-7-7-----7-7-7-7-7------|
--6-6-6-6-6-----6-6-6-6-6------|--6-6-6-6-6-----6-6-6-6-6------|
--5-5-5-5-5-----5-5-8-5-5------|--5-5-5-5-5-----5-5-8-5-5------|
--6-6-6-6-6-----6-6-6-6-6------|--6-6-6-6-6-----6-6-6-6-6------|
  The dead keep haunting me     They just keep coming back for more



  S S S S S. E  S S S S S S S S.     
---------------------------------|
---------------------------------|
--7-7-7-7-7-----7-7-7-7-7-7-7-7--|
--6-6-6-6-6-----6-6-6-6-6-6-6-6--|
--5-5-5-5-5-----5-8-5-5-5-8-5-5--|
--6-6-6-6-6-----6-6-6-6-6-6-6-6--|


                            TP       TP    TP    
   H        Q      E   E     H        Q     Q     
-------------------------|----------------------|
-------------------------|----------------------|
-------------------------|--7--------7----10----|
-------------------------|----------------------|
----------------/15s--3--|----------------------|
-------------------------|----------------------|


  TP       TP    TP      TP       TP          
  H        Q     Q       H        Q.      E   
----------------------|----------------------|
----------------------|----------------------|
--9--------7----10----|--7--------7------10--|
----------------------|----------------------|
----------------------|----------------------|
----------------------|----------------------|


   TP  TP  TP  TP  TP  TP  TP  TP                              
   E   E   E   E   E   E   E   E      Q      H           Q     
----------------------------------|--20b----20br--------15----|
--22--21--21--18--22--21--21--18--|---------------------------|
----------------------------------|---------------------------|
----------------------------------|---------------------------|
----------------------------------|---------------------------|
----------------------------------|---------------------------|


   |---6---|  |--6--|  |---6---|  |--6--|  |---6---|  |--6--|  |---6---|  6     
   S   S   S  S  S  S  S   S   S  S  S  S  S   S   S  S  S  S  S   S   S  E.    
--19p-17p-15-------16-20p-18p-16-------17-21p-19p-17-------17-22p-20p-17-22\---|
-------------19-17---------------20-18---------------21-19---------------------|
-------------------------------------------------------------------------------|
-------------------------------------------------------------------------------|
-------------------------------------------------------------------------------|
-------------------------------------------------------------------------------|


   |--6--|  |--6--|                                     
   S  S  S  S  S  S  S  S  S  S  E   S  S  S  S  S   S  
--19-17-16---------------------------------------------|
-----------19-17-16-17-16-19-18------------------------|
--------------------------------18--16-15-16-18-15\-13-|
-------------------------------------------------------|
-------------------------------------------------------|
-------------------------------------------------------|


                             |--6--|  |--6--|          
   S   S  S  S  E   S  T  T  S  S  S  S  S  S  S  E.   
------------------------------------------------------|
------------------------------------------------------|
--15s-17-13-------------------------------------------|
------------16-13--12-13-15-12-13-15-12-13-15-13-12---|
------------------------------------------------------|
------------------------------------------------------|


         PH              PH                                              
   E     Q     E   E     Q     E      S S S S S S S S S S  E     E   E   
----------------------------------|-------------------------------------|
----------------------------------|-------------------6-7-(7)S--13--13--|
----------------------------------|--/5-6-5---5---5-6-------------------|
------<>12----13------<>12----11--|---------7---7-----------------------|
--13--------------13--------------|-------------------------------------|
----------------------------------|-------------------------------------|


   Q    S  S  S  S  S  E   E   E.      E   E   E   E   H            
-----------------------------------|----------23--23--21br~--------|
--12--------------------------20---|--21--23-----------------------|
----------19-20-19----19--20-------|-------------------------------|
--------x----------21--------------|-------------------------------|
-----------------------------------|-------------------------------|
-----------------------------------|-------------------------------|


   |-----5-----|  |--6--|  |--6--|  |-----5-----|  |--6--|  |--6--|  
   S  S  S  S  S  S  S  S  S  S  S  S  S  S  S  S  S  S  S  S  S  S  
--20-18-17----------------17-18-20-20-18-17-------------------------|
-----------20-17-17-18-20-------------------20-17-18-20-22-22-19-20-|
--------------------------------------------------------------------|
--------------------------------------------------------------------|
--------------------------------------------------------------------|
--------------------------------------------------------------------|


               |--6--|  |--6--|  |-----5-----|  |-----5----|  
   S  S  S  S  S  S  S  S  S  S  S  S  S  S  S  S  S  S S  S  
-----------18-18-19-19-21-21-19------------------------------|
--18-19-21----------------------21-18-18-19-19-22-19-19-x-20-|
-------------------------------------------------------------|
-------------------------------------------------------------|
-------------------------------------------------------------|
-------------------------------------------------------------|


   Q       Q       Q       Q      
---------------------------------|
--20br----20------20------20-----|
--20------20br----20br----20\----|
---------------------------------|
---------------------------------|
---------------------------------|


   S  S  S  S  S  S  S  S  S  S  S  S  S  S  S  S  
--13----------------14----------------15----------|
-----15-14-12----------16-15-13----------17-16-14-|
--------------14-13-------------15-14-------------|
--------------------------------------------------|
--------------------------------------------------|
--------------------------------------------------|


   S  S  S  S  S  S  S  S  Q      E     E    
--------16----------------------------------|
-----------18-17-15-------------------------|
--16-15-------------17-16-15~----15~--(15)--|
--------------------------------------------|
--------------------------------------------|
--------------------------------------------|


   |---6---|  |---6---|  |---6---|  |---6---|  |---6---|  |---6---|  |-------7--
   S   S   S  S   S   S  S   S   S  S   S   S  S   S   S  S   S   S  S   S   S  
--16p-14p-13-16p-14p-13-17p-15p-14-16p-15p-14-19p-17p-15-20p-17p-16-21p-18p-16-2
--------------------------------------------------------------------------------
--------------------------------------------------------------------------------
--------------------------------------------------------------------------------
--------------------------------------------------------------------------------
--------------------------------------------------------------------------------

  S S S S S. E  S S S S S. E.     S S S S S. E  S S S S S. E.   
-------------------------------|-------------------------------|
-------------------------------|-------------------------------|
--7-7-7-7-7-----7-7-7-7-7------|--7-7-7-7-7-----7-7-7-7-7------|
--6-6-6-6-6-----6-6-6-6-6------|--6-6-6-6-6-----6-6-6-6-6------|
--5-5-5-5-5-----5-5-8-5-5------|--5-5-5-5-5-----5-5-8-5-5------|
--6-6-6-6-6-----6-6-6-6-6------|--6-6-6-6-6-----6-6-6-6-6------|
  Got to make    it stop          Can't take it     anymore


  S S S S S. E  S S S S S. E.     S S S S S. E  S S S S S. E.   
-------------------------------|-------------------------------|
-------------------------------|-------------------------------|
--7-7-7-7-7-----7-7-7-7-7------|--7-7-7-7-7-----7-7-7-7-7------|
--6-6-6-6-6-----6-6-6-6-6------|--6-6-6-6-6-----6-6-6-6-6------|
--5-5-5-5-5-----5-5-8-5-5------|--5-5-5-5-5-----5-5-8-5-5------|
--6-6-6-6-6-----6-6-6-6-6------|--6-6-6-6-6-----6-6-6-6-6------|
  The dead keep haunting me     They just keep coming back for more


  --   --   --   --                                                          
                      E  E  E  S  S E  E   E  E     E  E  E  E  E  E  E  E   
----|----|----|----|-----------------------------|--------------------------|
----|----|----|----|-----------------------------|--------------------------|
----|----|----|----|-----------------------------|--------------------------|
----|----|----|----|-----------------------------|--------------------------|
----|----|----|----|--5--5--5--5S-8-8--8S--4--4--|--4--4--4--4--4--4--4--4--|
----|----|----|----|--0--0--0--0----0--0---0--0--|--0--0--0--0--0--0--0--0--|
                        A          soldier

  E  E  E  S  S E  E   E  E     E  E  E  E  E  E  E  E   
-----------------------------|--------------------------|
-----------------------------|--------------------------|
-----------------------------|--------------------------|
-----------------------------|--------------------------|
--5--5--5--5S-8-8--8S--4--4--|--4--4--4--4--4--4--4--4--|
--0--0--0--0----0--0---0--0--|--0--0--0--0--0--0--0--0--|
  of         misfortune

  E  E  E  S  S E  E   E  E     E  E  E  E  E  E  E  E   
-----------------------------|--------------------------|
-----------------------------|--------------------------|
-----------------------------|--------------------------|
-----------------------------|--------------------------|
--5--5--5--5S-8-8--8S--4--4--|--4--4--4--4--4--4--4--4--|
--0--0--0--0----0--0---0--0--|--0--0--0--0--0--0--0--0--|
  I owe my pain      and suffering

  E  E  E  S  S E  E   E  E     E  E  E  E  E  E  E  E   
-----------------------------|--------------------------|
-----------------------------|--------------------------|
-----------------------------|--------------------------|
-----------------------------|--------------------------|
--5--5--5--5S-8-8--8S--4--4--|--4--4--4--4--4--4--4--4--|
--0--0--0--0----0--0---0--0--|--0--0--0--0--0--0--0--0--|
  To    this            hell

  E  E  E  S  S E  E   E  E     E  E  E  E  E  E  E  E   
-----------------------------|--------------------------|
-----------------------------|--------------------------|
-----------------------------|--------------------------|
-----------------------------|--------------------------|
--5--5--5--5S-8-8--8S--4--4--|--4--4--4--4--4--4--4--4--|
--0--0--0--0----0--0---0--0--|--0--0--0--0--0--0--0--0--|
  These           demons

  E  E  E  S  S E  E   E  E     E  E  E  E  E  E  E  E   
-----------------------------|--------------------------|
-----------------------------|--------------------------|
-----------------------------|--------------------------|
-----------------------------|--------------------------|
--5--5--5--5S-8-8--8S--4--4--|--4--4--4--4--4--4--4--4--|
--0--0--0--0----0--0---0--0--|--0--0--0--0--0--0--0--0--|
  Ripping     through    my soul

  E  E  E  S  S E  E   E  E     E  E  E  E  E  E  E  E   
-----------------------------|--------------------------|
-----------------------------|--------------------------|
-----------------------------|--------------------------|
-----------------------------|--------------------------|
--5--5--5--5S-8-8--8S--4--4--|--4--4--4--4--4--4--4--4--|
--0--0--0--0----0--0---0--0--|--0--0--0--0--0--0--0--0--|
  Evil's       relentless hostility

  E  E  S  S E  E  E  E  E     E  E  S  S E  E  E  E  E   
----------------------------|----------------------------|
----------------------------|----------------------------|
----------------------------|----------------------------|
--0--1--3S-4-3--0--2--1--3--|--0--1--3S-4-3--0--2--1--3--|
--0--1--3S-4-3--0--2--1--3--|--0--1--3S-4-3--0--2--1--3--|
--0--1--3S-4-3--0--2--1--3--|--0--1--3S-4-3--0--2--1--3--|
  Shell       shock              battle fatigue

  E  E  S  S E  E  E  E  E     E  E  S  S E  E  E  E  E     
----------------------------|-----------------------------|
----------------------------|-----------------------------|
----------------------------|-----------------------------|
--0--1--3S-4-3--0--2--1--3--|--0--1--3S-4-3--0--2--1--3---|
--0--1--3S-4-3--0--2--1--3--|--0--1--3S-4-3--0--2--1--3---|
--0--1--3S-4-3--0--2--1--3--|--0--1--3S-4-3--0--2--1--3---|
  Devastating                            insanity

  E  E  S  S E  E  E  E  E     E  E  S  S E  E  E  E  E   
----------------------------|----------------------------|
----------------------------|----------------------------|
----------------------------|----------------------------|
--0--1--3S-4-3--0--2--1--3--|--0--1--3S-4-3--0--2--1--3--|
--0--1--3S-4-3--0--2--1--3--|--0--1--3S-4-3--0--2--1--3--|
--0--1--3S-4-3--0--2--1--3--|--0--1--3S-4-3--0--2--1--3--|
  Flashbacks      panic                    attacks

  E  E  S  S E  E  E  E  E     E  E  S  S E  E  E  E  E   
----------------------------|----------------------------|
----------------------------|----------------------------|
----------------------------|----------------------------|
--0--1--3S-4-3--0--2--1--3--|--0--1--3S-4-3--0--2--1--3--|
--0--1--3S-4-3--0--2--1--3--|--0--1--3S-4-3--0--2--1--3--|
--0--1--3S-4-3--0--2--1--3--|--0--1--3S-4-3--0--2--1--3--|
  Death's    riding    he's coming          for me
  





Duration Legend
---------------
W - whole
H - half
Q - quarter
E - 8th
S - 16th
T - 32nd
X - 64th
. - note dotted
|-n-|  - n-tuplets


Tablature Legend
----------------
L - tied note
x - dead note
g - grace note
(n) - ghost note
> - accentuded note
NH - natural harmonic
AH - artificial harmonic
TH - tapped harmonic
SH - semi harmonic
PH - pitch harmonic
h - hammer on
p - pull off
b - bend
br - bendRelease
pb - preBend
pbr - preBendRelease
brb - bendReleaseBend
\n/ - tremolo bar dip
\n - tremolo bar dive
-/n - tremolo bar Release up
/n\ - tremolo bar inverted dip
/n - tremolo bar return
-\n - tremolo bar Release down
S - shift slide
s - legato slide
/ -  slide into from below or out of upwards
\ -  slide into from above or out of downwards
~ - vibrato
W - wide vibrato
tr - trill
TP - tremolo picking
T - tapping
S - slap
P - pop
< - fade in
^ - brush up
v - brush down
Tap to rate this tab
 
# A B C D E F G H I J K L M N O P Q R S T U V W X Y Z