Song name
# A B C D E F G H I J K L M N O P Q R S T U V W X Y Z

Slayer - Final Six tab

              This was requested by 650 people im going
               To give everyone a great tab with solo
                   To Final Six by Slayer so please
                       enjoy this Thanks alot
                          Rate and Comment.





Things To Know,

Tuning - Drop B

~ - let ring
\ - slide down
/ - slide up
" - tremolo
x - times played
() - Ghost note
w - whammy bar
h - hammer on
p - pull off
b - bend


Guitar 1 Clean
|--------0---------------0----------0-----|
|------0------0--------0---0------0-------|
|----0----------0----0----------0---------| (7x)
|--2--------8-----7-----------1-----------|
|-----------------------------------------|
|-----------------------------------------|

Guitar 2
|------------------------------------------------------------------|
|------------------------------------------------------------------|
|------------------------------------------------------------------|
|--(24)-(24)\(21)-(24)-(23)-(21)-(20)\(18)\(17)\(16)-(14)-(13)-----|
|-----------------------xx---xx---xx--------xx--------xx-----------|
|------------------------------------------------------------------|

Guitar 2
|-------------------------------------|
|-------------------------------------|
|-------------------------------------|
|--(12)--(12)-(12)--(12)-(12)---------|
|-----------------------------(12)----|
|-------------------------------------|

Guitar 2
|-------------------|
|-------------------|
|-------------------| (3x)
|-------------------|
|--2~/8~-7~\1~------|
|--2~/8~-7~\1~------|

Guitar 1 and 2
|------------------------------|
|------------------------------|
|------------------------------|
|--4-4--4-4--4-4-4-4--4-4-4----|
|--2-2--2-2--2-2-2-2--2-2-2----|
|--2-2--2-2--2-2-2-2--2-2-2----|

Guitar 1 Clean
|--------0---------------0----------0-----|
|------0------0--------0---0------0-------|
|----0----------0----0----------0---------| (3x)
|--2--------8-----7-----------1-----------|
|-----------------------------------------|
|-----------------------------------------|

Guitar 2
|-------------------|
|-------------------|
|-------------------| (3x)
|-------------------|
|--2~/8~-7~\1~------|
|--2~/8~-7~\1~------|

Guitar 1 and 2
|------------------------------|
|------------------------------|
|------------------------------|
|--4-4--4-4--4-4-4-4--4-4-4----|
|--2-2--2-2--2-2-2-2--2-2-2----|
|--2-2--2-2--2-2-2-2--2-2-2----|

Guitar 1 Clean
|--------0---------------0----------0-----|
|------0------0--------0---0------0-------|
|----0----------0----0----------0---------| (3x)
|--2--------8-----7-----------1-----------|
|-----------------------------------------|
|-----------------------------------------|

Guitar 2
|-------------------|
|-------------------|
|-------------------| (3x)
|-------------------|
|--2~/8~-7~\1~------|
|--2~/8~-7~\1~------|

Guitar 1 and 2
|------------------------------|
|------------------------------|
|------------------------------|
|--4-4--4-4--4-4-4-4--4-4-4----|
|--2-2--2-2--2-2-2-2--2-2-2----|
|--2-2--2-2--2-2-2-2--2-2-2----|

Guitar 1
|-----------------------------------------------|
|-----------------------------------------------|
|-----------------------------------------------| (2x)
|-----------------------------------------------|
|-----------------------------------------------|
|--00000000-0--00000000000-0--00000000000-0-----|

Guitar 2
|--------------------------|
|--------------------------|
|--------------------------|
|--2~--3--3-3--3-3--3-3----|
|--2~--3--3-3--3-3--3-3----|
|--0~--1--1-1--1-1--1-1----|

Guitar 1 and 2
|-----------------------------------------------------------------|
|-----------------------------------------------------------------|
|-----------------------------------------------------------------| (4x)
|-----------------------------------------------------------------|
|-----------------------------------------------------------5\4---|
|--0-2-3-0-2-3-0-2-3-0-2-3-0-2-3-0-2-3-0-2-3-0-2-3--0-2-3-0-3\2---|

Guitar 1 and 2
|---------------------------------|
|---------------------------------|
|---------------------------------|
|---------------------------------|
|------3"--2"------3"--2"---------|
|--2"----------2"----------5"-----|

Guitar 1 and 2
|---------------------------------------------------|
|---------------------------------------------------|
|---------------------------------------------------| (4x)
|---------------------------------------------------|
|---------------------------------------------5-----|
|--00000000-0--000000000-0--00000000-0--0-0h3-3-----|

Guitar 1 Solo
|---------------------------------------------------------|
|--12b-12w-----------------------------------------11b~---|
|---------------------------------------------7-10--------|
|----------0w----------------7---------7-9-10-------------|
|---------------------7-8-10---7--10-8--------------------|
|--------------7-9-10-------------------------------------|

Guitar 2
|-------------------------------------|
|-------------------------------------|
|-------------------------------------|
|-------------------------------------|
|-------------------------------------|
|--3"--2"--3"--0"--2"--3"--6"--5"-----|

Guitar 1 Solo
|---------------------------------------------------------------|
|--14-12-11-14-12-11-15-14-12-15-14-12-14-12-11-14-12-11--16----|
|---------------------------------------------------------------|
|---------------------------------------------------------------|
|---------------------------------------------------------------|
|---------------------------------------------------------------|

Guitar 2
|-------------------------------------|
|--------------------------20w--------|
|--------------------------20w--------|
|-------------------------------------|
|-------------------------------------|
|--3"--2"--3"--0"--2"--3"-------------|

Guitar 1 Solo
|---------------------------------------16b~----|
|--14-12-11-14-12-11-15-14-12-16-15-13----------|
|-----------------------------------------------|
|-----------------------------------------------|
|-----------------------------------------------|
|-----------------------------------------------|

Guitar 1 and 2
|-----------------------------------------------------------------|
|-----------------------------------------------------------------|
|-----------------------------------------------------------------| (4x)
|-----------------------------------------------------------------|
|-----------------------------------------------------------5\4---|
|--0-2-3-0-2-3-0-2-3-0-2-3-0-2-3-0-2-3-0-2-3-0-2-3--0-2-3-0-3\2---|

Guitar 1 and 2
|---------------------------------|
|---------------------------------|
|---------------------------------|
|---------------------------------|
|------3"--2"------3"--2"---------|
|--2"----------2"----------5"-----|

Guitar 1 and 2
|---------------------------------------------------|
|---------------------------------------------------|
|---------------------------------------------------| (4x)
|---------------------------------------------------|
|---------------------------------------------5-----|
|--00000000-0--000000000-0--00000000-0--0-0h3-3-----|

Guitar 1 pre solo
|------------------------|
|------------------------|
|------------------------|
|------------------------|
|--7"--4"--(4)-7"--7\----|
|------------------7\----|

Guitar 2 Play with solo
|-----------------------------------------------|
|-----------------------------------------------|
|-----------------------------------------------| (6x)
|-----------------------------------------------|
|-----------------------------------------------|
|--00000000-0--00000000000-0--00000000000-0-----|

Guitar 1 solo
|-------------------------------------------------------------|
|--12b-(12)-12b-(12)--11-10-8----8----------------------------|
|-----------------------------11---11-9-8-9-11-9-8------------|
|--------------------------------------------------11-10-8----|
|-------------------------------------------------------------|
|-------------------------------------------------------------|

Guitar 1 solo
|--------------------------------------------------------|
|--------------------------------------------------------|
|--------------------------------------------------------|
|-----8-11-10-8-10-11-10-8--8---------11-10-8------------|
|--11-------------------------11-10-8---------11-10-8----|
|--------------------------------------------------------|

Guitar 1 solo
|-------------------------------------------|
|-------------------------------------------|
|------------------------------------15w----|
|------------------------------------14w----|
|-------------------------11\"--11w---------|
|--11-10-8-11-10-8-11-10---9\"--10w---------|

Guitar 1 solo
|--------------------------------------------------|
|--------------------------------------------------|
|--13w--13~--13w-13w-13w-13w-13b--16~--16w---------|
|--13w--13~----------------------------16w--16b----|
|--------------------------------------------------|
|--------------------------------------------------|

Guitar 2 Play with solo
|------------------------------|
|------------------------------|
|------------------------------| (2x)
|------------------------------|
|--2h9~--8p5~--3p1~--0h3p0-----|
|--2h9~--8p5~--3p1~--0h3p0-----|

Guitar 1 Solo Ending
|--------------------------------------------------------------------------|
|--------------------------------------------------------------------------|
|--16-14-16-17-15-18-18-16-19-17-17-20-18-18-21-19-22-20-23--23-21-20w-24~-|
|------------------------------------------------------------------20w-----|
|--------------------------------------------------------------------------|
|--------------------------------------------------------------------------|

Guitar 2 Solo Ending
|----------------------------|
|----------------------------|
|----------------------------|
|----------------------------|
|--2h9~--8p5~--3p1~--0h3-----|
|--2h9~--8p5~--3p1~--0h3-----|

Guitar 1 and 2
|-----------------------------------------------------------------|
|-----------------------------------------------------------------|
|-----------------------------------------------------------------| (4x)
|-----------------------------------------------------------------|
|-----------------------------------------------------------5\4---|
|--0-2-3-0-2-3-0-2-3-0-2-3-0-2-3-0-2-3-0-2-3-0-2-3--0-2-3-0-3\2---|

Guitar 1 and 2
|---------------------------------|
|---------------------------------|
|---------------------------------|
|---------------------------------|
|------3"--2"------3"--2"---------|
|--2"----------2"----------5"-----|

Guitar 1 and 2
|----------------------------------------------------|
|----------------------------------------------------|
|----------------------------------------------------| (3x)
|----------------------------------------------------|
|----------7-5-------------7-5---------7-5-----------|
|--0-0-0-0-----0-0-0-0--2"-----0-0-0-0-----0--5"-----|


Ending/Outro
|---------------|
|---------------|
|---------------|
|---------------|
|--7~--7\~------|
|--7~--7\~------|


               Thanks Alot hope you enjoyed
               I know few parts are off and
               Off on how many times played
                  But you got the idea (:

Tap to rate this tab
# A B C D E F G H I J K L M N O P Q R S T U V W X Y Z