Song name
# A B C D E F G H I J K L M N O P Q R S T U V W X Y Z

Slayer - World Painted Blood tab

World Painted Blood
     -Slayer-
World Painted Blood


 ...Mmmhh, Let's Start The Show

Tune Half Step Down

                             Second Guitar
|--------------------------|---------------------------------|
|--------------------------|---------------------------------|
|--------------------------|---------------------------------|
|--------------------------|--5-4--------5-4-----------------|
|--/7-6--------7-6---------|------6-7-4-------6-7-4----------|
|-------7-8-5-------7-8-5--|---------------------------------|


|--------------------------|---------------------------------|
|--------------------------|---------------------------------|
|--------------------------|---------------------------------|
|--------------------------|--5-4----------------------------|
|--7-6-----3---------------|------6-7-3----------------------|
|------7-8-5---------------|----------5----------------------|

I Think You Can Find Out The Rhythm....
|------------------------------------------------------------|
|------------------------------------------------------------|
|------------------------------------------------------------|
|------------------------------------------------------------|
|------------------------------------------------------------|
|-00-0-0-0-0-00-0-00-0-0-0-0-00-0-00-0-0-0-00-1111-4444------|
  ** * * * * ** * ** * * * * ** * ** * * * ** **** **** 

 4 Times
|------------------------------------------------------------|
|------------------------------------------------------------|
|------------------------------------------------------------|
|------------------------------------------------------------|
|------------------------------------------------------------|
|-00-0-0-0-0-00-0-00-0-0-0-0-00-0-00-0-0-0-00-1111-4444------|
  ** * * * * ** * ** * * * * ** * ** * * * ** **** ****
 Twice
...World Painted Blood... No Sanctuary...
|------------------------------------------------------------|
|------------------------------------------------------------|
|------------------------------------------------------------|
|------------------------------------------------------------|
|------------------------------------------------------------|
|-33-3-3-33-3-3-22-2-2-22-2-33-3-3-33-3-66-6-6-55-5-5--------|
  ** * * ** * * ** * * ** * ** * * ** * ** * * ** * *
 4 Times
|------------------------------------------------------------|
|------------------------------------------------------------|
|------------------------------------------------------------|
|------------------------------------------------------------|
|------------------------------------------------------------|
|-00-0-0-0-0-00-0-00-0-0-0-0-00-0-00-0-0-0-00-1111-4444------|
  ** * * * * ** * ** * * * * ** * ** * * * ** **** ****

 Twice
...World Painted Blood... No Sanctuary...
|------------------------------------------------------------|
|------------------------------------------------------------|
|------------------------------------------------------------|
|------------------------------------------------------------|
|------------------------------------------------------------|
|-33-3-3-33-3-3-22-2-2-22-2-33-3-3-33-3-66-6-6-55-5-5--------|
  ** * * ** * * ** * * ** * ** * * ** * ** * * ** * *

 3 Times
|------------------------------------------------------------|
|------------------------------------------------------------|
|------------------------------------------------------------|
|-------------------------6-6-5-5-5-5-5-5--------------------|
|-7-5-5-5-5-5-7-7-7-8-8-8-----------------8/4-4-4-4-4-4-4----|
|------------------------------------------------------------|

 
|--------------------------------------------------------------------|
|-*------------------------------------------------------------------|
|--------------------------------------------------------------------|
|---2h3-------------2h3---3h5---2h3-2h3-------------2p0--------------|
|-*------------------------------------------------------2-3-3-3-3---|
|-------0-0-0-0-0-0-----0-----0---------0-0-0-0-0-0------0-1-1-1-1---|
        * * * * * *     *     *         * * * * * *                         
|--------------------------------------------------------------------|
|------------------------------------------------------------------*-|
|--------------------------------------------------------------------|
|---2h3-------------2h3---3h5---2h3-2h3-------------2p0--------------|
|--------------------------------------------------------2-6-6-6-6-*-|
|-------0-0-0-0-0-0-----0-----0---------0-0-0-0-0-0------0-4-4-4-4---|
        * * * * * *     *     *         * * * * * *            And Repeat
 Twice
|------------------------------------------------------------|
|------------------------------------------------------------|
|------------------------------------------------------------|
|-------------------------6-6-5-5-5-5-5-5--------------------|
|-7-5-5-5-5-5-7-7-7-8-8-8-----------------8/4-4-4-4-4-4-4----|
|------------------------------------------------------------|

|--------------------------------------------------------------------|
|-*------------------------------------------------------------------|
|--------------------------------------------------------------------|
|---2h3-------------2h3---3h5---2h3-2h3-------------2p0--------------|
|-*------------------------------------------------------2-3-3-3-3---|
|-------0-0-0-0-0-0-----0-----0---------0-0-0-0-0-0------0-1-1-1-1---|
        * * * * * *     *     *         * * * * * *                         
|--------------------------------------------------------------------|
|------------------------------------------------------------------*-|
|--------------------------------------------------------------------|
|---2h3-------------2h3---3h5---2h3-2h3-------------2p0--------------|
|--------------------------------------------------------2-6-6-6-6-*-|
|-------0-0-0-0-0-0-----0-----0---------0-0-0-0-0-0------0-4-4-4-4---|
        * * * * * *     *     *         * * * * * *            And Repeat
 Twice
|------------------------------------------------------------|
|------------------------------------------------------------|
|------------------------------------------------------------|
|-------------------------6-6-5-5-5-5-5-5--------------------|
|-7-5-5-5-5-5-7-7-7-8-8-8-----------------8/4-4-4-4-4-4-4----|
|------------------------------------------------------------|

  Background While Solo 
 4 Times
|------------------------------------------------------------|
|------------------------------------------------------------|
|------------------------------------------------------------|
|-5------5-5-------5-5-5-------------------------------------|
|-5------5-5-------5-5-5---3-3-3-4-4-------------------------|
|-3------3-3-------3-3-3-------------6-6---------------------|

 4 Times                                         Let Ring...
|----------------------------------------------|-------------|
|----------------------------------------------|-------------|
|----------------------------------------------|-------------|
|-4------4-4-------4-4-4-----------------------|--3----------|
|-4------4-4-------4-4-4---2-2-2-3-3-0-0-------|--3----------|
|-2------2-2-------2-2-2-----------------------|--1----------|

 8 Times
|------------------------------------------------------------|
|------------------------------------------------------------|
|------------------------------------------------------------|
|-2------2-2-------2-2-2---2-2-2-3-3-0-0---------------------|
|-2------2-2-------2-2-2-------------------------------------|
|-0------0-0-------0-0-0-------------------------------------|

Back To Verse
 4 Times
|------------------------------------------------------------|
|------------------------------------------------------------|
|------------------------------------------------------------|
|------------------------------------------------------------|
|------------------------------------------------------------|
|-00-0-0-0-0-00-0-00-0-0-0-0-00-0-00-0-0-0-00-1111-4444------|
  ** * * * * ** * ** * * * * ** * ** * * * ** **** ****

 Twice
...World Painted Blood... No Sanctuary...
|------------------------------------------------------------|
|------------------------------------------------------------|
|------------------------------------------------------------|
|------------------------------------------------------------|
|------------------------------------------------------------|
|-33-3-3-33-3-3-22-2-2-22-2-33-3-3-33-3-66-6-6-55-5-5--------|
  ** * * ** * * ** * * ** * ** * * ** * ** * * ** * *

 Twice
|------------------------------------------------------------|
|------------------------------------------------------------|
|------------------------------------------------------------|
|-------------------------6-6-5-5-5-5-5-5--------------------|
|-7-5-5-5-5-5-7-7-7-8-8-8-----------------8/4-4-4-4-4-4-4----|
|------------------------------------------------------------|

I'm Not Sure About The Last Part
 Twice
|--------------------------------------------------------------|
|--------------------------------------------------------------|
|--------------------------------------------------------------|
|-7-5-5-5-5-5-7-7-7-8-8-8-11-11-10-10-10-10-10-8-4-4-4-4-4-4---|
|-5-3-3-3-3-3-5-5-5-6-6-6-9--9--8--8--8--8--8--6-2-2-2-2-2-2---|
|-5-3-3-3-3-3-5-5-5-6-6-6-9--9--8--8--8--8--8--6-2-2-2-2-2-2---|

|--------------------------------------------------------------|
|--------------------------------------------------------------|
|--------------------------------------------------------------|
|-7-5-5-5-5-5-7-7-7-8-8-8-11-11-10-10-10-10-10-8-4-4-4-4-4-----|
|-5-3-3-3-3-3-5-5-5-6-6-6-9--9--8--8--8--8--8--6-2-2-2-2-2-----|
|-5-3-3-3-3-3-5-5-5-6-6-6-9--9--8--8--8--8--8--6-2-2-2-2-2-----|


Thanks For Rating And Comments

Cheers, 
Keep On Drinking
Tap to rate this tab
# A B C D E F G H I J K L M N O P Q R S T U V W X Y Z