Song name
# A B C D E F G H I J K L M N O P Q R S T U V W X Y Z

Slayer - Behind The Crooked Cross tab

Behind the crooked cross - Slayer

****************************************************************************

Behind The Crooked Cross by Slayer. This tab is, I think, much better than the one that 
already posted. Kerry on top, Jeff below and the legends at the bottom. Hope you like it.

****************************************************************************

Kerry King Lead Guitar

       E  E  E  E  E  E  E  E   20x
D#||----------------------------||
A#||----------------------------||
F#||*--------------------------*||
C#||*--------------------------*||
G#||----------------------------||
D#||---2--2--2--2--2--2--2--2---||

  E  E  E  E  E  E  E  E     E  E  E  E  E  E  E  E
--------------------------|--------------------------|
--------------------------|--------------------------|
--------------------------|--------------------------|
--------------------------|--------------------------|
--------3--------2--------|--------------------4--5--|
--2--2-----2--2-----2--2--|--4--2--2--3--2--2--------|


  E  E  E  E  E  E  E  E     E  E  E  E  E  E  Q
--------------------------|-------------------------|
--------------------------|-------------------------|
--------------------------|-------------------------|
--------------------------|--------------------3----|
--------3--------2--------|--------------------1----|
--2--2-----2--2-----2--2--|--4--2--2--3--2--2-------|


  E  E  E  E  E  E  E  E     E  E  E  E  E  E  E  E
--------------------------|--------------------------|
--------------------------|--------------------------|
--------------------------|--------------------------|
--------------------------|--------------------------|
--------3--------2--------|--------------------4--5--|
--2--2-----2--2-----2--2--|--4--2--2--3--2--2--------|


  E  E  E  E  E  E  E  E     E  E  E  E  E  E  Q
--------------------------|-------------------------|
--------------------------|-------------------------|
--------------------------|-------------------------|
--------------------------|--------------------3----|
--------3--------2--------|--------------------1----|
--2--2-----2--2-----2--2--|--4--2--2--3--2--2-------|


  Q.     E  Q    Q       E  Q.     E  E  Q
----------------------|-----------------------|
----------------------|-----------------------|
----------------------|-----------------------|
----------------------|-----------------------|
--4------3--L---------|-----------------------|
-----------------5----|--L--4------3--4--3----|


    E  E  E  E  E  E  E  E     E  E  E  E  E  E  E  E
|---------------------------|--------------------------|
|---------------------------|--------------------------|
|*--------------------------|--------------------------|
|*--------------------------|--------------------------|
|---------3--------2--------|--------------------4--5--|
|---2--2-----2--2-----2--2--|--4--2--2--3--2--2--------|


  E  E  E  E  E  E  E  E     E  E  E  E  E  E  Q
--------------------------|-------------------------|
--------------------------|-------------------------|
--------------------------|-------------------------|
--------------------------|--------------------3----|
--------3--------2--------|--------------------1----|
--2--2-----2--2-----2--2--|--4--2--2--3--2--2-------|


  E  E  E  E  E  E  E  E     E  E  E  E  E  E  E  E
--------------------------|--------------------------|
--------------------------|--------------------------|
--------------------------|--------------------------|
--------------------------|--------------------------|
--------3--------2--------|--------------------4--5--|
--2--2-----2--2-----2--2--|--4--2--2--3--2--2--------|


  E  E  E  E  E  E  E  E     E  E  E  E  E  E  Q
--------------------------|-------------------------|
--------------------------|-------------------------|
--------------------------|-------------------------|
--------------------------|--------------------3----|
--------3--------2--------|--------------------1----|
--2--2-----2--2-----2--2--|--4--2--2--3--2--2-------|


  E  E  E  E  E  E  E  E     E  E  E  E  E  E  E  E
--------------------------|--------------------------|
--------------------------|--------------------------|
--------------------------|--------------------------|
--------------------------|--------------------------|
--------3--------2--------|--------------------4--5--|
--2--2-----2--2-----2--2--|--4--2--2--3--2--2--------|


  E  E  E  E  E  E  E  E     E  E  E  E  E  E  Q
--------------------------|-------------------------|
--------------------------|-------------------------|
--------------------------|-------------------------|
--------------------------|--------------------3----|
--------3--------2--------|--------------------1----|
--2--2-----2--2-----2--2--|--4--2--2--3--2--2-------|


  E  E  E  E  E  E  E  E     E  E  E  E  E  E  E  E
--------------------------|--------------------------|
--------------------------|--------------------------|
--------------------------|--------------------------|
--------------------------|--------------------------|
--------3--------2--------|--------------------4--5--|
--2--2-----2--2-----2--2--|--4--2--2--3--2--2--------|


  E  E  E  E  E  E  E  E     E  E  E  E  E  E  Q
--------------------------|-------------------------|
--------------------------|-------------------------|
--------------------------|-------------------------|
--------------------------|--------------------3----|
--------3--------2--------|--------------------1----|
--2--2-----2--2-----2--2--|--4--2--2--3--2--2-------|


  Q.     E  Q    Q       E  Q.     E  E  Q
----------------------|-----------------------|
----------------------|-----------------------|
----------------------|-----------------------|
----------------------|-----------------------|
--4------3--L---------|-----------------------|
-----------------5----|--L--4------3--4--3----|


  E  E  E  E  E  E  E  E     E  E  E  E  E  E  E  E
--------------------------|--------------------------|
--------------------------|--------------------------|
--------------------------|--------------------------|
--------------------------|--------------------------|
--------------------------|--------------------------|
--2--2--2--2--2--2--2--2--|--2--2--2--2--2--2--2--2--|


  Q.     E  Q    Q       E  Q.     E  E  Q
----------------------|-----------------------|
----------------------|-----------------------|
----------------------|-----------------------|
----------------------|-----------------------|
--4------3--L---------|-----------------------|
-----------------5----|--L--4------3--4--3----|


  E  E  E  E  E  E  E  E     E  E  E  E  E  E  E  E
--------------------------|--------------------------|
--------------------------|--------------------------|
--------------------------|--------------------------|
--------------------------|--------------------------|
--------------------------|--------------------------|
--2--2--2--2--2--2--2--2--|--2--2--2--2--2--2--2--2--|


  Q.     E  Q    Q       E  Q.     E  E  Q
----------------------|-----------------------|
----------------------|-----------------------|
----------------------|-----------------------|
----------------------|-----------------------|
--4------3--L---------|-----------------------|
-----------------5----|--L--4------3--4--3----|


  E  E  E  E  E  E  E  E     E  E  E  E  E  E  E  E
--------------------------|--------------------------|
--------------------------|--------------------------|
--------------------------|--------------------------|
--------------------------|--------------------------|
--------------------------|--------------------------|
--2--2--2--2--2--2--2--2--|--2--2--2--2--2--2--2--2--|


  Q.     E  Q    Q       E  Q.     E  E  Q
----------------------|-----------------------|
----------------------|-----------------------|
----------------------|-----------------------|
----------------------|-----------------------|
--4------3--L---------|-----------------------|
-----------------5----|--L--4------3--4--3----|


  E  E  E  E  E  E  E  E     E  E  E  E  E  E  E  E
--------------------------|--------------------------|
--------------------------|--------------------------|
--------------------------|--------------------------|
--------------------------|--------------------------|
--------3--------2--------|--------------------4--5--|
--2--2-----2--2-----2--2--|--4--2--2--3--2--2--------|


  E  E  E  E  E  E  E  E     E  E  E  E  E  E  Q
--------------------------|-------------------------|
--------------------------|-------------------------|
--------------------------|-------------------------|
--------------------------|--------------------3----|
--------3--------2--------|--------------------1----|
--2--2-----2--2-----2--2--|--4--2--2--3--2--2-------|


  E  E  E  E  E  E  E  E     E  E  E  E  E  E  E  E
--------------------------|--------------------------|
--------------------------|--------------------------|
--------------------------|--------------------------|
--------------------------|--------------------------|
--------3--------2--------|--------------------4--5--|
--2--2-----2--2-----2--2--|--4--2--2--3--2--2--------|


  E  E  E  E  E  E  E  E     E  E  E  E  E  E  Q
--------------------------|--------------------------||
--------------------------|--------------------------||
--------------------------|-------------------------*||
--------------------------|--------------------3----*||
--------3--------2--------|--------------------1-----||
--2--2-----2--2-----2--2--|--4--2--2--3--2--2--------||


  Q.     E  Q    Q       E  Q.     E  E  Q
----------------------|-----------------------|
----------------------|-----------------------|
----------------------|-----------------------|
----------------------|-----------------------|
--4------3--L---------|-----------------------|
-----------------5----|--L--4------3--4--3----|


  Q    Q    H           W
---------------------|-------------------|
---------------------|-------------------|
---------------------|-------------------|
---------------------|-------------------|
---------------------|-------------------|
--2------------------|-------------------|


  solo
  E    E  E  E  E  E  E  E     E  E  Q    E  E  Q
----------------------------|------------------------|
----------------------------|------------------------|
----------------------------|------------------------|
----------------------------|------------------------|
----------4--------4--------|--3-----3---------------|
--2----2-----2--2-----2--2--|-----2-------5--5--4----|


  E  E  E  E  E  E  E  E     E  E  Q    E  E  Q
--------------------------|------------------------|
--------------------------|------------------------|
--------------------------|------------------------|
--------------------------|------------------------|
--------4--------4--------|--3-----3---------------|
--2--2-----2--2-----2--2--|-----2-------5--5--4----|


  E  E  E  E  E  E  E  E     E  E  Q    E  E  Q
--------------------------|------------------------|
--------------------------|------------------------|
--------------------------|------------------------|
--------------------------|------------------------|
--------4--------4--------|--3-----3---------------|
--2--2-----2--2-----2--2--|-----2-------5--5--4----|


  E  E  E  E  E  E  E  E     E  E  Q    E  E  Q
--------------------------|------------------------|
--------------------------|------------------------|
--------------------------|------------------------|
--------------------------|------------------------|
--------4--------4--------|--3-----3---------------|
--2--2-----2--2-----2--2--|-----2-------5--5--4----|


  H        Q    E  E     H        E  Q.
----------------------|---------------------|
----------------------|---------------------|
----------------------|---------------------|
----------------------|--8--------L--8------|
----------------x--x--|---------------------|
----------------------|---------------------|


  S S S S E  E  E  S S E  S S
------------------------------|
------------------------------|
----------2--4--5--4-6-L--7-7-|
--4-4-4-4---------------------|
------------------------------|
------------------------------|


    H        Q    E   S S
--------------------------|
--------------------------|
--7g9--------L-------10-9-|
--------------------------|
--------------------------|
--------------------------|


   S  S  E   S  S  S  S  S  S  E   E   S  S
--------------------------------------------|
--------------------------------------------|
--10-10-10--11-11-10-11-12-11-10--12--16-14-|
--------------------------------------------|
--------------------------------------------|
--------------------------------------------|


   H         E  E   E   S  S
-----------------------15-15-|
----------------8--18--------|
--16b--------L---------------|
-----------------------------|
-----------------------------|
-----------------------------|


             |--3--|
   S  S  E   S  S  S  S  S  E   S  S  E   S  S
--18-18-17--15----------15-12--15-15-12--15-15-|
---------------18-18-16------------------------|
-----------------------------------------------|
-----------------------------------------------|
-----------------------------------------------|
-----------------------------------------------|


   E   S  S S  E.  Q.     E
--12-----12-L----------------|
------15------15---L------L--|
-----------------------------|
-----------------------------|
-----------------------------|
-----------------------------|


  E  E  E  E  E  E  E  E     E  E  Q    E  E  Q
--------------------------|------------------------|
--------------------------|------------------------|
--------------------------|------------------------|
--------------------------|------------------------|
--------4--------4--------|--3-----3---------------|
--2--2-----2--2-----2--2--|-----2-------5--5--4----|


  E  E  E  E  E  E  E  E     E  E  Q    E  E  Q
--------------------------|------------------------|
--------------------------|------------------------|
--------------------------|------------------------|
--------------------------|------------------------|
--------4--------4--------|--3-----3---------------|
--2--2-----2--2-----2--2--|-----2-------5--5--4----|


  E  E  E  E  E  E  E  E     E  E  Q    E  E  Q
--------------------------|------------------------|
--------------------------|------------------------|
--------------------------|------------------------|
--------------------------|------------------------|
--------4--------4--------|--3-----3---------------|
--2--2-----2--2-----2--2--|-----2-------5--5--4----|


  E  E  E  E  E  E  E  E     E  E  Q    E  E  Q
--------------------------|------------------------|
--------------------------|------------------------|
--------------------------|------------------------|
--------------------------|------------------------|
--------4--------4--------|--3-----3---------------|
--2--2-----2--2-----2--2--|-----2-------5--5--4----|


  E  E  E  E  E  E  E  E     E  E  Q    E  E  Q
--------------------------|------------------------|
--------------------------|------------------------|
--------------------------|------------------------|
--------------------------|------------------------|
--------4--------4--------|--3-----3---------------|
--2--2-----2--2-----2--2--|-----2-------5--5--4----|


  E  E  E  E  E  E  E  E     E  E  Q    E  E  Q
--------------------------|------------------------|
--------------------------|------------------------|
--------------------------|------------------------|
--------------------------|------------------------|
--------4--------4--------|--3-----3---------------|
--2--2-----2--2-----2--2--|-----2-------5--5--4----|


  E  E  E  E  E  E  E  E     E  E  Q    E  E  Q
--------------------------|------------------------|
--------------------------|------------------------|
--------------------------|------------------------|
--------------------------|------------------------|
--------4--------4--------|--3-----3---------------|
--2--2-----2--2-----2--2--|-----2-------5--5--4----|


  E  E  E  E  E  E  E  E     E  E  Q    E  E  Q
--------------------------|------------------------|
--------------------------|------------------------|
--------------------------|------------------------|
--------------------------|------------------------|
--------4--------4--------|--3-----3---------------|
--2--2-----2--2-----2--2--|-----2-------5--5--4----|


   E   S  S  S  S  E   S  S  S  S  S  S  S  S
--19--16-19-16--------19-16-19-16-19-16-------|
---------------19-16--------------------19-16-|
----------------------------------------------|
----------------------------------------------|
----------------------------------------------|
----------------------------------------------|


   S  S  S  S  S  S  S  S  E   S  S  E   E
--19-16-19-16-19-16-------19--16-19-16------|
--------------------19-16---------------19--|
--------------------------------------------|
--------------------------------------------|
--------------------------------------------|
--------------------------------------------|


   Q.       E   E   E    S  S  E
----------------------------------|
--19b------19b--L--19br--L-16-19--|
----------------------------------|
----------------------------------|
----------------------------------|
----------------------------------|


   S  S  S  S  E   S  S  E   Q.
------------------------------------|
--19-------19-----16-16-16b--L------|
-----18-18----18--------------------|
------------------------------------|
------------------------------------|
------------------------------------|


   S  S  E   E   E   S  S  E   S  S  E
----------------------------------------|
----------------------------------------|
----------------------------------------|
--------------------------12--14-12-14--|
------------12--14--12-14---------------|
--14-12-14------------------------------|


                               |---3---|
   S  S  E   S  E.   S  S  E   E   E   E
--------------------------15--12--15--12--|
---------------12---15-12-----------------|
--12-14-12--14----------------------------|
------------------------------------------|
------------------------------------------|
------------------------------------------|


   T            T            T
   Q      S  S  E  E   S  S  E   S  S
--19S----15-12-19--L--15-12-19--15-12-|
--------------------------------------|
--------------------------------------|
--------------------------------------|
--------------------------------------|
--------------------------------------|


   T            T            T
   Q      S  S  E  E   S  S  E  E
--19S----15-12-19--L--15-12-19-----|
-----------------------------------|
-----------------------------------|
-----------------------------------|
-----------------------------------|
-----------------------------------|


  Q.     E  Q    Q       E  Q.     E  E  Q
----------------------|-----------------------|
----------------------|-----------------------|
----------------------|-----------------------|
----------------------|-----------------------|
--4------3--L---------|-----------------------|
-----------------5----|--L--4------3--4--3----|


  E  E  E  E  E  E  E  E     E  E  E  E  E  E  E  E
--------------------------|--------------------------|
--------------------------|--------------------------|
--------------------------|--------------------------|
--------------------------|--------------------------|
--------3--------2--------|--------------------4--5--|
--2--2-----2--2-----2--2--|--4--2--2--3--2--2--------|


  E  E  E  E  E  E  E  E     E  E  E  E  E  E  Q
--------------------------|-------------------------|
--------------------------|-------------------------|
--------------------------|-------------------------|
--------------------------|--------------------3----|
--------3--------2--------|--------------------1----|
--2--2-----2--2-----2--2--|--4--2--2--3--2--2-------|


  E  E  E  E  E  E  E  E     E  E  E  E  E  E  E  E
--------------------------|--------------------------|
--------------------------|--------------------------|
--------------------------|--------------------------|
--------------------------|--------------------------|
--------3--------2--------|--------------------4--5--|
--2--2-----2--2-----2--2--|--4--2--2--3--2--2--------|


  E  E  E  E  E  E  E  E     E  E  E  E  E  E  Q
--------------------------|-------------------------|
--------------------------|-------------------------|
--------------------------|-------------------------|
--------------------------|--------------------3----|
--------3--------2--------|--------------------1----|
--2--2-----2--2-----2--2--|--4--2--2--3--2--2-------|


  E  E  E  E  E  E  E  E     E  E  E  E  E  E  E  E
--------------------------|--------------------------|
--------------------------|--------------------------|
--------------------------|--------------------------|
--------------------------|--------------------------|
--------3--------2--------|--------------------4--5--|
--2--2-----2--2-----2--2--|--4--2--2--3--2--2--------|


  E  E  E  E  E  E  E  E     E  E  E  E  E  E  Q
--------------------------|-------------------------|
--------------------------|-------------------------|
--------------------------|-------------------------|
--------------------------|--------------------3----|
--------3--------2--------|--------------------1----|
--2--2-----2--2-----2--2--|--4--2--2--3--2--2-------|


  E  E  E  E  E  E  E  E     E  E  E  E  E  E  E  E
--------------------------|--------------------------|
--------------------------|--------------------------|
--------------------------|--------------------------|
--------------------------|--------------------------|
--------3--------2--------|--------------------4--5--|
--2--2-----2--2-----2--2--|--4--2--2--3--2--2--------|


  E  E  E  E  E  E  E  E     E  E  E  E  E  E  Q
--------------------------|-------------------------|
--------------------------|-------------------------|
--------------------------|-------------------------|
--------------------------|--------------------3----|
--------3--------2--------|--------------------1----|
--2--2-----2--2-----2--2--|--4--2--2--3--2--2-------|


  Q.     E  Q    Q       E  Q.     E  E  Q
----------------------|-----------------------|
----------------------|-----------------------|
----------------------|-----------------------|
----------------------|-----------------------|
--4------3--L---------|-----------------------|
-----------------5----|--L--4------3--4--3----|


  E  E  E  E  E  E  E  E     E  E  E  E  E  E  E  E
--------------------------|--------------------------|
--------------------------|--------------------------|
--------------------------|--------------------------|
--------------------------|--------------------------|
--------------------------|--------------------------|
--2--2--2--2--2--2--2--2--|--2--2--2--2--2--2--2--2--|


  Q.     E  Q    Q       E  Q.     E  E  Q
----------------------|-----------------------|
----------------------|-----------------------|
----------------------|-----------------------|
----------------------|-----------------------|
--4------3--L---------|-----------------------|
-----------------5----|--L--4------3--4--3----|


  E  E  E  E  E  E  E  E     E  E  E  E  E  E  E  E
--------------------------|--------------------------|
--------------------------|--------------------------|
--------------------------|--------------------------|
--------------------------|--------------------------|
--------------------------|--------------------------|
--2--2--2--2--2--2--2--2--|--2--2--2--2--2--2--2--2--|


  Q.     E  Q    Q       E  Q.     E  E  Q
----------------------|-----------------------|
----------------------|-----------------------|
----------------------|-----------------------|
----------------------|-----------------------|
--4------3--L---------|-----------------------|
-----------------5----|--L--4------3--4--3----|


  E  E  E  E  E  E  E  E     E  E  E  E  E  E  E  E
--------------------------|--------------------------|
--------------------------|--------------------------|
--------------------------|--------------------------|
--------------------------|--------------------------|
--------------------------|--------------------------|
--2--2--2--2--2--2--2--2--|--2--2--2--2--2--2--2--2--|


  Q.     E  Q    Q       E  Q.     E  E  Q
----------------------|-----------------------|
----------------------|-----------------------|
----------------------|-----------------------|
----------------------|-----------------------|
--4------3--L---------|-----------------------|
-----------------5----|--L--4------3--4--3----|


  Q    Q    H
---------------------||
---------------------||
---------------------||
---------------------||
---------------------||
--2------------------||

Jeff Rhythm Guitar

       W                 4x
D#||---------------------||
A#||---------------------||
F#||*-------------------*||
C#||*-------------------*||
G#||---------------------||
D#||---------------------||


   E  E  E  E  E  E  E  E   16x
----------------------------||
----------------------------||
*--------------------------*||
*--------------------------*||
----------------------------||
---2--2--2--2--2--2--2--2---||

  E  E  E  E  E  E  E  E     E  E  E  E  E  E  E  E
--------------------------|--------------------------|
--------------------------|--------------------------|
--------------------------|--------------------------|
--------------------------|--------------------------|
--------3--------2--------|--------------------4--5--|
--2--2-----2--2-----2--2--|--4--2--2--3--2--2--------|


  E  E  E  E  E  E  E  E     E  E  E  E  E  E  Q
--------------------------|-------------------------|
--------------------------|-------------------------|
--------------------------|-------------------------|
--------------------------|--------------------3----|
--------3--------2--------|--------------------1----|
--2--2-----2--2-----2--2--|--4--2--2--3--2--2-------|


  E  E  E  E  E  E  E  E     E  E  E  E  E  E  E  E
--------------------------|--------------------------|
--------------------------|--------------------------|
--------------------------|--------------------------|
--------------------------|--------------------------|
--------3--------2--------|--------------------4--5--|
--2--2-----2--2-----2--2--|--4--2--2--3--2--2--------|


  E  E  E  E  E  E  E  E     E  E  E  E  E  E  Q
--------------------------|-------------------------|
--------------------------|-------------------------|
--------------------------|-------------------------|
--------------------------|--------------------3----|
--------3--------2--------|--------------------1----|
--2--2-----2--2-----2--2--|--4--2--2--3--2--2-------|


  Q.     E  Q    Q       E  Q.     E  E  Q
----------------------|-----------------------|
----------------------|-----------------------|
----------------------|-----------------------|
--6------5--L---------|-----------------------|
-----------------7----|--L--6------5--6--5----|
----------------------|-----------------------|


    E  E  E  E  E  E  E  E     E  E  E  E  E  E  E  E
|---------------------------|--------------------------|
|---------------------------|--------------------------|
|*--------------------------|--------------------------|
|*--------------------------|--------------------------|
|---------3--------2--------|--------------------4--5--|
|---2--2-----2--2-----2--2--|--4--2--2--3--2--2--------|


  E  E  E  E  E  E  E  E     E  E  E  E  E  E  Q
--------------------------|-------------------------|
--------------------------|-------------------------|
--------------------------|-------------------------|
--------------------------|--------------------3----|
--------3--------2--------|--------------------1----|
--2--2-----2--2-----2--2--|--4--2--2--3--2--2-------|


  E  E  E  E  E  E  E  E     E  E  E  E  E  E  E  E
--------------------------|--------------------------|
--------------------------|--------------------------|
--------------------------|--------------------------|
--------------------------|--------------------------|
--------3--------2--------|--------------------4--5--|
--2--2-----2--2-----2--2--|--4--2--2--3--2--2--------|


  E  E  E  E  E  E  E  E     E  E  E  E  E  E  Q
--------------------------|-------------------------|
--------------------------|-------------------------|
--------------------------|-------------------------|
--------------------------|--------------------3----|
--------3--------2--------|--------------------1----|
--2--2-----2--2-----2--2--|--4--2--2--3--2--2-------|


  E  E  E  E  E  E  E  E     E  E  E  E  E  E  E  E
--------------------------|--------------------------|
--------------------------|--------------------------|
--------------------------|--------------------------|
--------------------------|--------------------------|
--------3--------2--------|--------------------4--5--|
--2--2-----2--2-----2--2--|--4--2--2--3--2--2--------|


  E  E  E  E  E  E  E  E     E  E  E  E  E  E  Q
--------------------------|-------------------------|
--------------------------|-------------------------|
--------------------------|-------------------------|
--------------------------|--------------------3----|
--------3--------2--------|--------------------1----|
--2--2-----2--2-----2--2--|--4--2--2--3--2--2-------|


  E  E  E  E  E  E  E  E     E  E  E  E  E  E  E  E
--------------------------|--------------------------|
--------------------------|--------------------------|
--------------------------|--------------------------|
--------------------------|--------------------------|
--------3--------2--------|--------------------4--5--|
--2--2-----2--2-----2--2--|--4--2--2--3--2--2--------|


  E  E  E  E  E  E  E  E     E  E  E  E  E  E  Q
--------------------------|-------------------------|
--------------------------|-------------------------|
--------------------------|-------------------------|
--------------------------|--------------------3----|
--------3--------2--------|--------------------1----|
--2--2-----2--2-----2--2--|--4--2--2--3--2--2-------|


  Q.     E  Q    Q       E  Q.     E  E  Q
----------------------|-----------------------|
----------------------|-----------------------|
----------------------|-----------------------|
----------------------|-----------------------|
--4------3--L---------|-----------------------|
-----------------5----|--L--4------3--4--3----|


  E  E  E  E  E  E  E  E     E  E  E  E  E  E  E  E
--------------------------|--------------------------|
--------------------------|--------------------------|
--------------------------|--------------------------|
--------------------------|--------------------------|
--------------------------|--------------------------|
--2--2--2--2--2--2--2--2--|--2--2--2--2--2--2--2--2--|


  Q.     E  Q    Q       E  Q.     E  E  Q
----------------------|-----------------------|
----------------------|-----------------------|
----------------------|-----------------------|
----------------------|-----------------------|
--4------3--L---------|-----------------------|
-----------------5----|--L--4------3--4--3----|


  E  E  E  E  E  E  E  E     E  E  E  E  E  E  E  E
--------------------------|--------------------------|
--------------------------|--------------------------|
--------------------------|--------------------------|
--------------------------|--------------------------|
--------------------------|--------------------------|
--2--2--2--2--2--2--2--2--|--2--2--2--2--2--2--2--2--|


  Q.     E  Q    Q       E  Q.     E  E  Q
----------------------|-----------------------|
----------------------|-----------------------|
----------------------|-----------------------|
----------------------|-----------------------|
--4------3--L---------|-----------------------|
-----------------5----|--L--4------3--4--3----|


  E  E  E  E  E  E  E  E     E  E  E  E  E  E  E  E
--------------------------|--------------------------|
--------------------------|--------------------------|
--------------------------|--------------------------|
--------------------------|--------------------------|
--------------------------|--------------------------|
--2--2--2--2--2--2--2--2--|--2--2--2--2--2--2--2--2--|


  Q.     E  Q    Q       E  Q.     E  E  Q
----------------------|-----------------------|
----------------------|-----------------------|
----------------------|-----------------------|
----------------------|-----------------------|
--4------3--L---------|-----------------------|
-----------------5----|--L--4------3--4--3----|


  E  E  E  E  E  E  E  E     E  E  E  E  E  E  E  E
--------------------------|--------------------------|
--------------------------|--------------------------|
--------------------------|--------------------------|
--------------------------|--------------------------|
--------3--------2--------|--------------------4--5--|
--2--2-----2--2-----2--2--|--4--2--2--3--2--2--------|


  E  E  E  E  E  E  E  E     E  E  E  E  E  E  Q
--------------------------|-------------------------|
--------------------------|-------------------------|
--------------------------|-------------------------|
--------------------------|--------------------3----|
--------3--------2--------|--------------------1----|
--2--2-----2--2-----2--2--|--4--2--2--3--2--2-------|


  E  E  E  E  E  E  E  E     E  E  E  E  E  E  E  E
--------------------------|--------------------------|
--------------------------|--------------------------|
--------------------------|--------------------------|
--------------------------|--------------------------|
--------3--------2--------|--------------------4--5--|
--2--2-----2--2-----2--2--|--4--2--2--3--2--2--------|


  E  E  E  E  E  E  E  E     E  E  E  E  E  E  Q
--------------------------|--------------------------||
--------------------------|--------------------------||
--------------------------|-------------------------*||
--------------------------|--------------------3----*||
--------3--------2--------|--------------------1-----||
--2--2-----2--2-----2--2--|--4--2--2--3--2--2--------||


  Q.     E  Q    Q       E  Q.     E  E  Q
----------------------|-----------------------|
----------------------|-----------------------|
--6------5--L---------|-----------------------|
-----------------7----|--L--6------5--6--5----|
----------------------|-----------------------|
----------------------|-----------------------|


  Q    Q    H           W
---------------------|-------------------|
---------------------|-------------------|
---------------------|-------------------|
--4------------------|-------------------|
---------------------|-------------------|
---------------------|-------------------|


   Q.       E   H
--16---------------------|
--19b------19b--L--------|
-------------------------|
-------------------------|
-------------------------|
-------------------------|


  E   Q.      E   S  S E   S  S
--------------------16----21-16-|
--L--19b------L--19-------------|
--------------------------------|
--------------------------------|
--------------------------------|
--------------------------------|


   |---3---|   |---3---|   |---3---|   |---3---|
   E   E   E   E   E   E   E   E   E   E   E   E
--16--16--21--16--16--16--21--16--16--16--21--16--|
--------------------------------------------------|
--------------------------------------------------|
--------------------------------------------------|
--------------------------------------------------|
--------------------------------------------------|


       W
   E   Q.      Q    Q
-------------------------|
--19--19b------L---------|
-------------------------|
-------------------------|
-------------------------|
--------------------2----|


   E   E   S  S  E   S  S  E   S  S  S  S
------------------------------------------|
------------------------------------------|
---------------------------------12-14-12-|
--------------------12-14-12--14----------|
------12--14-12-14------------------------|
--14--------------------------------------|


   W
   H          S   S  E   E   E
--------------------------------|
----------------------------15--|
--14b--------14br-L-12--14------|
--------------------------------|
--------------------------------|
--------------------------------|


  |---3---|   |---3---|   |---3---|   |---3---|
  E   E   E   E   E   E   E   E   E   E   E   E
---------------------13--12--13--12--------------|
--L--15--12--15--12------------------15--13--12--|
-------------------------------------------------|
-------------------------------------------------|
-------------------------------------------------|
-------------------------------------------------|


           \4/
   |---3---|
   E   E   E  H.              E  E  E  E  E  E  E  E
---------------------------|--------------------------|
--13--12-------------------|--------------------------|
----------14--L------------|--------------------------|
---------------------------|--------------------------|
---------------------------|--------4--------4--------|
---------------------------|--2--2-----2--2-----2--2--|


  E  E  Q    E  E  Q       E  E  E  E  E  E  E  E
------------------------|--------------------------|
------------------------|--------------------------|
------------------------|--------------------------|
------------------------|--------------------------|
--3-----3---------------|--------4--------4--------|
-----2-------5--5--4----|--2--2-----2--2-----2--2--|


  E  E  Q    E  E  Q       E  E  E  E  E  E  E  E
------------------------|--------------------------|
------------------------|--------------------------|
------------------------|--------------------------|
------------------------|--------------------------|
--3-----3---------------|--------4--------4--------|
-----2-------5--5--4----|--2--2-----2--2-----2--2--|


  E  E  Q    E  E  Q       E  E  E  E  E  E  E  E
------------------------|--------------------------|
------------------------|--------------------------|
------------------------|--------------------------|
------------------------|--------------------------|
--3-----3---------------|--------4--------4--------|
-----2-------5--5--4----|--2--2-----2--2-----2--2--|


  E  E  Q    E  E  Q       W
------------------------|-------------------|
------------------------|-------------------|
------------------------|-------------------|
------------------------|-------------------|
--3-----3---------------|-------------------|
-----2-------5--5--4----|-------------------|


  H        E  E  Q       W
----------------------|-------------------|
----------------------|-------------------|
----------------------|-------------------|
----------------------|-------------------|
-----------7--7--6----|-------------------|
-----------5--5--4----|-------------------|


  H        E  E  Q       Q    E  Q    E  Q
----------------------|-----------------------|
----------------------|-----------------------|
----------------------|-----------------------|
----------------------|-------6-------6-------|
-----------7--7--6----|-------4-------4-------|
-----------5--5--4----|-----------------------|


  E  E  E  E  H           Q    E  E  E  E  Q
-----------------------|------------------------|
-----------------------|------------------------|
-----------------------|------------------------|
--5-----5--------------|-------6--------6-------|
--3-----3--------------|-------4--------4-------|
-----------------------|------------------------|


                            \0/      \2/
  E  E  E  E  E  E  Q       H        H
-------------------------|--------------------|
-------------------------|--------------------|
-------------------------|--9--------9--------|
--5-----5----------------|--------------------|
--3-----3-----7--7--6----|--------------------|
--------------5--5--4----|--------------------|


  \2/     \2/   \2/   \2/
  E   S S S   S S   S H
-------------------------------|
----------9---L-9---L-9--------|
--9---L-L----------------------|
-------------------------------|
-------------------------------|
-------------------------------|


            |-3-| |--3--|
  E  E  S S S S S E  E  E  S S E
----------------------------------|
----------------------------------|
--4--6--4-0-6-4-0-6--4--0--6-4-0--|
----------------------------------|
----------------------------------|
----------------------------------|


  Q     Q      Q      Q         H          E  E   Q
----------------------------|--------------------------|
--4S----9S----14S----19S----|--15br--------L--L--------|
----------------------------|--------------------15----|
----------------------------|--------------------------|
----------------------------|--------------------------|
----------------------------|--------------------------|


   S  S  S  S  S  S  E   S  S  Q.
--12-12-15-15-14-12-15-----------------|
------------------------15-15-15S------|
---------------------------------------|
---------------------------------------|
---------------------------------------|
---------------------------------------|


   S  S  E   S  S  S  E   S  S  S     E   S  S
----------------------------15-15-15g18--18-18-|
--15-15-14--16-16-15-18--18--------------------|
-----------------------------------------------|
-----------------------------------------------|
-----------------------------------------------|
-----------------------------------------------|


   S   E.  Q    Q.     E     E  E  E  E  E  E  E  E
--18b~-L---L----L------L--|--------------------------|
--------------------------|--------------------------|
--------------------------|--------------------------|
--------------------------|--------------------------|
--------------------------|--------4--------4--------|
--------------------------|--2--2-----2--2-----2--2--|


  E  E  Q    E  E  Q       E  E  E  E  E  E  E  E
------------------------|--------------------------|
------------------------|--------------------------|
------------------------|--------------------------|
------------------------|--------------------------|
--3-----3---------------|--------4--------4--------|
-----2-------5--5--4----|--2--2-----2--2-----2--2--|


  E  E  Q    E  E  Q       E  E  E  E  E  E  E  E
------------------------|--------------------------|
------------------------|--------------------------|
------------------------|--------------------------|
------------------------|--------------------------|
--3-----3---------------|--------4--------4--------|
-----2-------5--5--4----|--2--2-----2--2-----2--2--|


  E  E  Q    E  E  Q       E  E  E  E  E  E  E  E
------------------------|--------------------------|
------------------------|--------------------------|
------------------------|--------------------------|
------------------------|--------------------------|
--3-----3---------------|--------4--------4--------|
-----2-------5--5--4----|--2--2-----2--2-----2--2--|


  E  E  Q    E  E  Q       Q.     E  Q    Q
------------------------|----------------------|
------------------------|----------------------|
------------------------|----------------------|
------------------------|--6------5--L---------|
--3-----3---------------|-----------------7----|
-----2-------5--5--4----|----------------------|


  E  Q.     E  E  Q       E  E  E  E  E  E  E  E
-----------------------|--------------------------|
-----------------------|--------------------------|
-----------------------|--------------------------|
-----------------------|--------------------------|
--L--6------5--6--5----|--------3--------2--------|
-----------------------|--2--2-----2--2-----2--2--|


  E  E  E  E  E  E  E  E     E  E  E  E  E  E  E  E
--------------------------|--------------------------|
--------------------------|--------------------------|
--------------------------|--------------------------|
--------------------------|--------------------------|
--------------------4--5--|--------3--------2--------|
--4--2--2--3--2--2--------|--2--2-----2--2-----2--2--|


  E  E  E  E  E  E  Q       E  E  E  E  E  E  E  E
-------------------------|--------------------------|
-------------------------|--------------------------|
-------------------------|--------------------------|
--------------------3----|--------------------------|
--------------------1----|--------3--------2--------|
--4--2--2--3--2--2-------|--2--2-----2--2-----2--2--|


  E  E  E  E  E  E  E  E     E  E  E  E  E  E  E  E
--------------------------|--------------------------|
--------------------------|--------------------------|
--------------------------|--------------------------|
--------------------------|--------------------------|
--------------------4--5--|--------3--------2--------|
--4--2--2--3--2--2--------|--2--2-----2--2-----2--2--|


  E  E  E  E  E  E  Q       E  E  E  E  E  E  E  E
-------------------------|--------------------------|
-------------------------|--------------------------|
-------------------------|--------------------------|
--------------------3----|--------------------------|
--------------------1----|--------3--------2--------|
--4--2--2--3--2--2-------|--2--2-----2--2-----2--2--|


  E  E  E  E  E  E  E  E     E  E  E  E  E  E  E  E
--------------------------|--------------------------|
--------------------------|--------------------------|
--------------------------|--------------------------|
--------------------------|--------------------------|
--------------------4--5--|--------3--------2--------|
--4--2--2--3--2--2--------|--2--2-----2--2-----2--2--|


  E  E  E  E  E  E  Q       E  E  E  E  E  E  E  E
-------------------------|--------------------------|
-------------------------|--------------------------|
-------------------------|--------------------------|
--------------------3----|--------------------------|
--------------------1----|--------3--------2--------|
--4--2--2--3--2--2-------|--2--2-----2--2-----2--2--|


  E  E  E  E  E  E  E  E     E  E  E  E  E  E  E  E
--------------------------|--------------------------|
--------------------------|--------------------------|
--------------------------|--------------------------|
--------------------------|--------------------------|
--------------------4--5--|--------3--------2--------|
--4--2--2--3--2--2--------|--2--2-----2--2-----2--2--|


  E  E  E  E  E  E  Q       Q.     E  Q    Q
-------------------------|----------------------|
-------------------------|----------------------|
-------------------------|----------------------|
--------------------3----|----------------------|
--------------------1----|--4------3--L---------|
--4--2--2--3--2--2-------|-----------------5----|


  E  Q.     E  E  Q       E  E  E  E  E  E  E  E
-----------------------|--------------------------|
-----------------------|--------------------------|
-----------------------|--------------------------|
-----------------------|--------------------------|
-----------------------|--------------------------|
--L--4------3--4--3----|--2--2--2--2--2--2--2--2--|


  E  E  E  E  E  E  E  E     Q.     E  Q    Q
--------------------------|----------------------|
--------------------------|----------------------|
--------------------------|----------------------|
--------------------------|----------------------|
--------------------------|--4------3--L---------|
--2--2--2--2--2--2--2--2--|-----------------5----|


  E  Q.     E  E  Q       E  E  E  E  E  E  E  E
-----------------------|--------------------------|
-----------------------|--------------------------|
-----------------------|--------------------------|
-----------------------|--------------------------|
-----------------------|--------------------------|
--L--4------3--4--3----|--2--2--2--2--2--2--2--2--|


  E  E  E  E  E  E  E  E     Q.     E  Q    Q
--------------------------|----------------------|
--------------------------|----------------------|
--------------------------|----------------------|
--------------------------|----------------------|
--------------------------|--4------3--L---------|
--2--2--2--2--2--2--2--2--|-----------------5----|


  E  Q.     E  E  Q       E  E  E  E  E  E  E  E
-----------------------|--------------------------|
-----------------------|--------------------------|
-----------------------|--------------------------|
-----------------------|--------------------------|
-----------------------|--------------------------|
--L--4------3--4--3----|--2--2--2--2--2--2--2--2--|


  E  E  E  E  E  E  E  E     Q.     E  Q    Q
--------------------------|----------------------|
--------------------------|----------------------|
--------------------------|--6------5--L---------|
--------------------------|-----------------7----|
--------------------------|----------------------|
--2--2--2--2--2--2--2--2--|----------------------|


  E  Q.     E  E  Q       Q    Q    H
-----------------------|---------------------||
-----------------------|---------------------||
-----------------------|---------------------||
--L--6------5--6--5----|--4------------------||
-----------------------|---------------------||
-----------------------|---------------------||

Duration Legend
---------------
W - whole
H - half
Q - quarter
E - 8th
S - 16th
T - 32nd
X - 64th
. - note dotted
|-n-|  - n-tuplets


Tablature Legend
----------------
L - tied note
x - dead note
g - grace note
(n) - ghost note
> - accentuded note
NH - natural harmonic
AH - artificial harmonic
TH - tapped harmonic
SH - semi harmonic
PH - pitch harmonic
h - hammer on
p - pull off
b - bend
br - bendRelease
pb - preBend
pbr - preBendRelease
brb - bendReleaseBend
\n/ - tremolo bar dip
\n - tremolo bar dive
-/n - tremolo bar Release up
/n\ - tremolo bar inverted dip
/n - tremolo bar return
-\n - tremolo bar Release down
S - shift slide
s - legato slide
/ -  slide into from below or out of upwards
\ -  slide into from above or out of downwards
~ - vibrato
W - wide vibrato
tr - trill
TP - tremolo picking
T - tapping
S - slap
P - pop
< - fade in
^ - brush up
v - brush down
Tap to rate this tab
# A B C D E F G H I J K L M N O P Q R S T U V W X Y Z