Song name
# A B C D E F G H I J K L M N O P Q R S T U V W X Y Z

Slayer - Bloodline tab

Bloodline - Slayer

****************************************************************************

Bloodline by Slayer. There are more tabs of Bloodline, but I say: it's better to have 1 
tab, instead of 10 incomplete tabs. Just for a change,I put Jeff at the top, Kerry below 
the legends are as usual at the bottom. Have fun and rock on.

****************************************************************************

Jeff Hanneman

      Q    E  E  Q    E  E     Q    E  E  Q    E  E
D#||------------------------|-------------------------||
A#||------------------------|-------------------------||
F#||------------------------|------------------------*||
C#||------------------------|------------------------*||
G#||--0----L--0--0----L--0--|--0----L--0--0----L--0---||
C#||--0----L--0--3----L--3--|--2----L--2--1----L--1---||


   Q    E  E  Q    E  E     Q    E  E  Q    E  E
-------------------------|------------------------|
-------------------------|------------------------|
*------------------------|------------------------|
*------------------------|------------------------|
---0----L--0--0----L--0--|--0----L--0--0----L--0--|
---0----L--0--3----L--3--|--2----L--2--1----L--1--|


  Q    E  E  Q    E  E     Q    E  E  E  E  E  E
------------------------|-------------------------|
------------------------|-------------------------|
------------------------|-------------------------|
------------------------|-------------------------|
--0----L--0--0----L--0--|--0----L--0--2--3-----0--|
--0----L--0--3----L--3--|--2----L--0--2--3-----1--|


  Q    E  E  Q    E  E     Q    E  E  E  E  E  E
------------------------|-------------------------|
------------------------|-------------------------|
------------------------|-------------------------|
------------------------|-------------------------|
--0----L--0--0----L--0--|--0----L--0--2--3-----0--|
--0----L--0--3----L--3--|--2----L--0--2--3-----1--|


    Q    E  E  Q    E  E     Q    E  E  E  E  E  E   3x
|-------------------------|--------------------------||
|-------------------------|--------------------------||
|*------------------------|-------------------------*||
|*------------------------|-------------------------*||
|---0----L--0--0----L--0--|--0----L--0--2--3-----0---||
|---0----L--0--3----L--3--|--2----L--0--2--3-----1---||


  E  S S S S E  E  S S E  S S E  E  S S S S E  E  S S E
--------------------------------------------------------|
--------------------------------------------------------|
--------------------------------------------------------|
--------------------------------------------------------|
--------------------------------------------------------|
--0--1-1-0-0-0--0--1-0-0--1-0-0--0--1-1-0-0-0--0--1-0-0-|


         Eternal Kiss I breathe
  S S E  E                      S S S S E  S S E
--------------------------------------------------|
--------------------------------------------------|
--------------------------------------------------|
--------------------------------------------------|
--------------------------------------------------|
--1-0-0--0----------------------0-0-0-0-0--1-0-0--|


  S S E  E  S S S S E  S S E
------------------------------|
------------------------------|
------------------------------|
------------------------------|
------------------------------|
--1-0-0--0--0-0-0-0-0--1-0-0--|


      Siphon your blood to me
  S S E                       E  S S S S E  S S E
---------------------------------------------------|
---------------------------------------------------|
---------------------------------------------------|
---------------------------------------------------|
---------------------------------------------------|
--1-0-0-----------------------0--0-0-0-0-0--1-0-0--|


  S S E  E  S S E  E  E  E
----------------------------|
----------------------------|
----------------------------|
----------------------------|
----------------1--3--4--6--|
--1-0-0--0--0-0-1--3--4--6--|


      Feel my wounds of your god
  S S E                          E  S S S S E  S S E
------------------------------------------------------|
------------------------------------------------------|
------------------------------------------------------|
------------------------------------------------------|
------------------------------------------------------|
--1-0-0--------------------------0--0-0-0-0-0--1-0-0--|


  S S E  E  S S S S E  S S E
------------------------------|
------------------------------|
------------------------------|
------------------------------|
------------------------------|
--1-0-0--0--0-0-0-0-0--1-0-0--|


      Forever rape,            Mortal   -    li
  S S E             E  S S S S E                S S E
-------------------------------------------------------|
-------------------------------------------------------|
-------------------------------------------------------|
-------------------------------------------------------|
-------------------------------------------------------|
--1-0-0-------------0--0-0-0-0-0----------------1-0-0--|


      Teee.....
  S S E         E  S S E  E  E  E
-----------------------------------|
-----------------------------------|
-----------------------------------|
-----------------------------------|
-----------------------1--3--4--6--|
--1-0-0---------0--0-0-1--3--4--6--|


      I smell of Death, I
  S S E                   E  S S S S E  S S E
-----------------------------------------------|
-----------------------------------------------|
-----------------------------------------------|
-----------------------------------------------|
-----------------------------------------------|
--1-0-0-------------------0--0-0-0-0-0--1-0-0--|


  I reek of Hate
  S              S E  E  S S S S E  S S E
-------------------------------------------|
-------------------------------------------|
-------------------------------------------|
-------------------------------------------|
-------------------------------------------|
--1--------------0-0--0--0-0-0-0-0--1-0-0--|


  I will live
  S            S E  E  S S S S E  S S E
-----------------------------------------|
-----------------------------------------|
-----------------------------------------|
-----------------------------------------|
-----------------------------------------|
--1------------0-0--0--0-0-0-0-0--1-0-0--|


  forever
  S       S E  E  S S E  E  E  E
----------------------------------|
----------------------------------|
----------------------------------|
----------------------------------|
----------------------1--3--4--6--|
--1-------0-0--0--0-0-1--3--4--6--|


      Lost child pay the Dead
  S S E                       E  S S S S E  S S E
---------------------------------------------------|
---------------------------------------------------|
---------------------------------------------------|
---------------------------------------------------|
---------------------------------------------------|
--1-0-0-----------------------0--0-0-0-0-0--1-0-0--|


    Bleeding screams of silence
  S S                            E  E  S S S S E  S S E
--------------------------------------------------------|
--------------------------------------------------------|
--------------------------------------------------------|
--------------------------------------------------------|
--------------------------------------------------------|
--1-0----------------------------0--0--0-0-0-0-0--1-0-0-|


      In my veins                   Your Eternity
  S S E           E  S S S S E  S S E
--------------------------------------------------|
--------------------------------------------------|
--------------------------------------------------|
--------------------------------------------------|
--------------------------------------------------|
--1-0-0-----------0--0-0-0-0-0--1-0-0-------------|


  S S E  E  S S E  E  E  E
----------------------------|
----------------------------|
----------------------------|
----------------------------|
----------------1--3--4--6--|
--1-0-0--0--0-0-1--3--4--6--|


       I kill you and
  Q    E               E  Q    E  E
-------------------------------------|
-------------------------------------|
-------------------------------------|
-------------------------------------|
--0----L---------------0--0----L--0--|
--0----L---------------0--3----L--3--|


             your dreams tonite,
  Q    E  E  Q                    E  E
----------------------------------------|
----------------------------------------|
----------------------------------------|
----------------------------------------|
--0----L--0--0--------------------L--0--|
--2----L--2--1--------------------L--1--|


          begin new
  Q    E  E          Q    E  E
--------------------------------|
--------------------------------|
--------------------------------|
--------------------------------|
--0----L--0----------0----L--0--|
--0----L--0----------3----L--3--|


  life
  Q    E  E  E  E  E  E
-------------------------|
-------------------------|
-------------------------|
-------------------------|
--0----L--0--2--3-----0--|
--2----L--0--2--3-----1--|


       Bleed your death
  Q    E                E  Q    E  E
--------------------------------------|
--------------------------------------|
--------------------------------------|
--------------------------------------|
--0----L----------------0--0----L--0--|
--0----L----------------0--3----L--3--|


       Upon me let your
  Q    E                E  Q    E  E
--------------------------------------|
--------------------------------------|
--------------------------------------|
--------------------------------------|
--0----L----------------0--0----L--0--|
--2----L----------------2--1----L--1--|


  Bloodline feed my
  Q                 E  E  Q    E  E
-------------------------------------|
-------------------------------------|
-------------------------------------|
-------------------------------------|
--0-----------------L--0--0----L--0--|
--0-----------------L--0--3----L--3--|


  Q    E  E  E  E  E  E
-------------------------|
-------------------------|
-------------------------|
-------------------------|
--0----L--0--2--3--------|
--2----L--0--2--3--------|


    First breath born come alive learn to kill
  S S                                          E  E  S S
---------------------------------------------------------|
---------------------------------------------------------|
---------------------------------------------------------|
---------------------------------------------------------|
---------------------------------------------------------|
--1-0------------------------------------------0--0--0-0-|


  S S E  E  S S S S E  S S E
------------------------------|
------------------------------|
------------------------------|
------------------------------|
------------------------------|
--1-0-0--0--0-0-0-0-0--1-0-0--|


  Bloodfest awaits to
  S                    S E  E  S S S S E  S S E
-------------------------------------------------|
-------------------------------------------------|
-------------------------------------------------|
-------------------------------------------------|
-------------------------------------------------|
--1--------------------0-0--0--0-0-0-0-0--1-0-0--|


      feed your hunger
  S S E                E  S S E  E  E  E
------------------------------------------|
------------------------------------------|
------------------------------------------|
------------------------------------------|
------------------------------1--3--4--6--|
--1-0-0----------------0--0-0-1--3--4--6--|


  Dark side has no rival
  S                       S E  E  S S S S E  S S E
----------------------------------------------------|
----------------------------------------------------|
----------------------------------------------------|
----------------------------------------------------|
----------------------------------------------------|
--1-----------------------0-0--0--0-0-0-0-0--1-0-0--|


    test your faith in blood
  S S                        E  E  S S S S E  S S E
-----------------------------------------------------|
-----------------------------------------------------|
-----------------------------------------------------|
-----------------------------------------------------|
-----------------------------------------------------|
--1-0------------------------0--0--0-0-0-0-0--1-0-0--|


  Night hides the hunting
  S                        S E  E  S S S S E  S S E
-----------------------------------------------------|
-----------------------------------------------------|
-----------------------------------------------------|
-----------------------------------------------------|
-----------------------------------------------------|
--1------------------------0-0--0--0-0-0-0-0--1-0-0--|


  packs a feeding frenzy
  S                       S E  E  S S E  E  E  E
--------------------------------------------------|
--------------------------------------------------|
--------------------------------------------------|
--------------------------------------------------|
--------------------------------------1--3--4--6--|
--1-----------------------0-0--0--0-0-1--3--4--6--|


       I kill you and your dreams tonite
  Q    E                                 E  Q    E  E
-------------------------------------------------------|
-------------------------------------------------------|
-------------------------------------------------------|
-------------------------------------------------------|
--0----L---------------------------------0--0----L--0--|
--0----L---------------------------------0--3----L--3--|


  Q    E  E  Q    E  E
------------------------|
------------------------|
------------------------|
------------------------|
--0----L--0--0----L--0--|
--2----L--2--1----L--1--|


       Begin new
  Q    E          E  Q    E  E
--------------------------------|
--------------------------------|
--------------------------------|
--------------------------------|
--0----L----------0--0----L--0--|
--0----L----------0--3----L--3--|


  Life
  Q    E  E  E  E  E  E
-------------------------|
-------------------------|
-------------------------|
-------------------------|
--0----L--0--2--3-----0--|
--2----L--0--2--3-----1--|


       Bleed your death upon me
  Q    E                        E  Q    E  E
----------------------------------------------|
----------------------------------------------|
----------------------------------------------|
----------------------------------------------|
--0----L------------------------0--0----L--0--|
--0----L------------------------0--3----L--3--|


          Let your Bloodline
  Q    E  E                  Q    E  E
----------------------------------------|
----------------------------------------|
----------------------------------------|
----------------------------------------|
--0----L--0------------------0----L--0--|
--2----L--2------------------1----L--1--|


          Feed my...
  Q    E  E          Q    E  E
--------------------------------|
--------------------------------|
--------------------------------|
--------------------------------|
--0----L--0----------0----L--0--|
--0----L--0----------3----L--3--|


  Q    E  E  E  E  E  E
-------------------------|
-------------------------|
-------------------------|
-------------------------|
--0----L--0--2--3--------|
--2----L--0--2--3--------|


    S S E  E  E  E  E  E  E
|-----------------------------||
|-----------------------------||
|*---------------------------*||
|*---------------------------*||
|-------1--0--------3--2--1---||
|---1-3-------6--0------------||


  S S E  E  E  E  E  E  E     S S E  E  E  E  E  E  E
---------------------------|---------------------------|
---------------------------|---------------------------|
---------------------------|---------------------------|
---------------------------|---------------------------|
------1--0--------4--0-----|--1-3-4--3--1--0--7--6--5--|
--1-3-------6--0--4--0-----|--1-3-4--3--1--0--7--6--5--|


  S S E  E  E  E  E  E  E     S S E  E  E  E  E  E  E
---------------------------|---------------------------|
---------------------------|---------------------------|
---------------------------|---------------------------|
---------------------------|---------------------------|
--1-3-4--3--1--0--7--6--5--|--1-3-4--3--1--0--7--6--5--|
--1-3-4--3--1--0--7--6--5--|--1-3-4--3--1--0--7--6--5--|


  S S E  E  E  E  E  E  E     S S E  E  E  E  E  E  E
---------------------------|---------------------------|
---------------------------|---------------------------|
---------------------------|---------------------------|
---------------------------|---------------------------|
--1-3-4--3--1--0--7--6--5--|--1-3-4--3--1--0--7--6--5--|
--1-3-4--3--1--0--7--6--5--|--1-3-4--3--1--0--7--6--5--|


  S S E  E  E  E  E  E  E     S S E  E  E  E  E  E  E
---------------------------|---------------------------|
---------------------------|---------------------------|
---------------------------|---------------------------|
---------------------------|---------------------------|
--1-3-4--3--1--0--7--6--5--|--1-3-4--3--1--0--7--6--5--|
--1-3-4--3--1--0--7--6--5--|--1-3-4--3--1--0--7--6--5--|


  S S E  E  E  E  E  E  E     S S E  E  E  E  E  E  E
---------------------------|---------------------------|
---------------------------|---------------------------|
---------------------------|---------------------------|
---------------------------|---------------------------|
--1-3-4--3--1--0--7--6--5--|--1-3-4--3--1--0--7--6--5--|
--1-3-4--3--1--0--7--6--5--|--1-3-4--3--1--0--7--6--5--|


  S S E  E  E  E  E  E  E     S S E  E  E  E  E  E  E
---------------------------|---------------------------|
---------------------------|---------------------------|
---------------------------|---------------------------|
---------------------------|---------------------------|
--1-3-4--3--1--0--7--6--5--|--1-3-4--3--1--0--7--6--5--|
--1-3-4--3--1--0--7--6--5--|--1-3-4--3--1--0--7--6--5--|


  S S E  E  E  E  E  E  E     S S E  E  E  E  E  E  E
---------------------------|---------------------------|
---------------------------|---------------------------|
---------------------------|---------------------------|
---------------------------|---------------------------|
--1-3-4--3--1--0--7--6--5--|--1-3-4--3--1--0--7--6--5--|
--1-3-4--3--1--0--7--6--5--|--1-3-4--3--1--0--7--6--5--|


  S S E  E  E  E  E  E  E     S S E  E  E  E  E  E  E
---------------------------|---------------------------|
---------------------------|---------------------------|
---------------------------|---------------------------|
---------------------------|---------------------------|
--1-3-4--3--1--0--7--6--5--|--1-3-4--3--1--0--7--6--5--|
--1-3-4--3--1--0--7--6--5--|--1-3-4--3--1--0--7--6--5--|


  S S E  E  E  E  E  E  E
---------------------------|
---------------------------|
---------------------------|
---------------------------|
--1-3-4--3--1--0--7--6--5--|
--1-3-4--3--1--0--7--6--5--|


     Drink the flesh of life itself
  E  E                              E  E  E  E  E  E
------------------------------------------------------|
------------------------------------------------------|
------------------------------------------------------|
------------------------------------------------------|
--3--2------------------------------2--3--2--2--3--2--|
--3--2------------------------------2--3--2--2--3--2--|


  Prepare to reign a thousand years ......
  E                                        E  E  E  E  E
---------------------------------------------------------|
---------------------------------------------------------|
---------------------------------------------------------|
---------------------------------------------------------|
--3----------------------------------------2--2--3--2--2-|
--3----------------------------------------2--2--3--2--2-|


  Q    E  E  Q    E  E     Q    E  E  Q    E  E
------------------------|------------------------|
------------------------|------------------------|
------------------------|------------------------|
------------------------|------------------------|
--0----L--0--0----L--0--|--0----L--0--0----L--0--|
--0----L--0--3----L--3--|--2----L--2--1----L--1--|


  Q    E  E  Q    E  E     Q    E  E  E  E  E  E
------------------------|-------------------------|
------------------------|-------------------------|
------------------------|-------------------------|
------------------------|-------------------------|
--0----L--0--0----L--0--|--0----L--0--2--3-----0--|
--0----L--0--3----L--3--|--2----L--0--2--3-----1--|


       I kill you and your dreams tonite
  Q    E                                 E  Q    E  E
-------------------------------------------------------|
-------------------------------------------------------|
-------------------------------------------------------|
-------------------------------------------------------|
--0----L---------------------------------0--0----L--0--|
--0----L---------------------------------0--3----L--3--|


  Q    E  E  Q    E  E
------------------------|
------------------------|
------------------------|
------------------------|
--0----L--0--0----L--0--|
--2----L--2--1----L--1--|


       Begin    new
  Q    E             E  Q    E  E
-----------------------------------|
-----------------------------------|
-----------------------------------|
-----------------------------------|
--0----L-------------0--0----L--0--|
--0----L-------------0--3----L--3--|


  Life
  Q    E  E  E  E  E  E
-------------------------|
-------------------------|
-------------------------|
-------------------------|
--0----L--0--2--3-----0--|
--2----L--0--2--3-----1--|


       Bleed your death upon me
  Q    E                         E  Q    E  E
-----------------------------------------------|
-----------------------------------------------|
-----------------------------------------------|
-----------------------------------------------|
--0----L-------------------------0--0----L--0--|
--0----L-------------------------0--3----L--3--|


       Let your bloodline feed
  Q    E                        E  Q    E  E
----------------------------------------------|
----------------------------------------------|
----------------------------------------------|
----------------------------------------------|
--0----L------------------------0--0----L--0--|
--2----L------------------------2--1----L--1--|


             my                 youth
  Q    E  E  Q    E  E     Q    E     E  E  E  E  E
------------------------|----------------------------|
------------------------|----------------------------|
------------------------|----------------------------|
------------------------|----------------------------|
--0----L--0--0----L--0--|--0----L-----0--2--3-----0--|
--0----L--0--3----L--3--|--2----L-----0--2--3-----1--|


                  Bleed your death upon me
  Q    E  E  Q    E                        E
----------------------------------------------|
----------------------------------------------|
----------------------------------------------|
----------------------------------------------|
--0----L--0--0----L------------------------0--|
--0----L--0--3----L------------------------3--|


  Q    E  E  Q    E  E
------------------------|
------------------------|
------------------------|
------------------------|
--0----L--0--0----L--0--|
--2----L--2--1----L--1--|


       Bleed your Death Upon me
  Q    E                        E  Q    E  E
----------------------------------------------|
----------------------------------------------|
----------------------------------------------|
----------------------------------------------|
--0----L------------------------0--0----L--0--|
--0----L------------------------0--3----L--3--|


  Q    E  E  E  E  E  E
-------------------------|
-------------------------|
-------------------------|
-------------------------|
--0----L--0--2--3-----0--|
--2----L--0--2--3-----1--|


  Bleed your   death upon me....
  Q                              E  E  Q    E  E
--------------------------------------------------|
--------------------------------------------------|
--------------------------------------------------|
--------------------------------------------------|
--0------------------------------L--0--0----L--0--|
--0------------------------------L--0--3----L--3--|


                     Let your bloodline feed
  Q    E  E  Q    E  E
----------------------------------------------|
----------------------------------------------|
----------------------------------------------|
----------------------------------------------|
--0----L--0--0----L--0------------------------|
--2----L--2--1----L--1------------------------|


  Q    E  E  Q    E  E
------------------------|
------------------------|
------------------------|
------------------------|
--0----L--0--0----L--0--|
--0----L--0--3----L--3--|


          my youth
  Q    E  E        E  E  E  E
-------------------------------|
-------------------------------|
-------------------------------|
-------------------------------|
--0----L--0--------2--3-----0--|
--2----L--0--------2--3-----1--|


  S S E  E  E  E  E  E  E
---------------------------|
---------------------------|
---------------------------|
---------------------------|
--1-3-4--3--1--0--7--6--5--|
--1-3-4--3--1--0--7--6--5--|


    As you die I'm immortal
  S S                       E  E  E  E  E  E  E
-------------------------------------------------|
-------------------------------------------------|
-------------------------------------------------|
-------------------------------------------------|
--1-3-----------------------4--3--1--0--7--6--5--|
--1-3-----------------------4--3--1--0--7--6--5--|


      Faithless no religion
  S S E                     E  E  E  E  E  E
----------------------------------------------|
----------------------------------------------|
----------------------------------------------|
----------------------------------------------|
--1-3-4---------------------3--1--0--7--6--5--|
--1-3-4---------------------3--1--0--7--6--5--|


  S S E  E  E  E  E  E  E
---------------------------|
---------------------------|
---------------------------|
---------------------------|
--1-3-4--3--1--0--7--6--5--|
--1-3-4--3--1--0--7--6--5--|


      Captive blood enslavement
  S S E                         E  E  E  E  E  E
--------------------------------------------------|
--------------------------------------------------|
--------------------------------------------------|
--------------------------------------------------|
--1-3-4-------------------------3--1--0--7--6--5--|
--1-3-4-------------------------3--1--0--7--6--5--|


  Pain and hunger drives your madness
  S                                   S E  E  E  E  E  E
---------------------------------------------------------|
---------------------------------------------------------|
---------------------------------------------------------|
---------------------------------------------------------|
--1-----------------------------------3-4--3--1--0--7--6-|
--1-----------------------------------3-4--3--1--0--7--6-|


  Drink flesh life itself
  S                       S E  E  E  E  E  E  E
-------------------------------------------------|
-------------------------------------------------|
-------------------------------------------------|
-------------------------------------------------|
--1-----------------------3-4--3--1--0--7--6--5--|
--1-----------------------3-4--3--1--0--7--6--5--|


  Prepare to reign a thousand years
  S                                 S E  E  E  E  E  E
--------------------------------------------------------|
--------------------------------------------------------|
--------------------------------------------------------|
--------------------------------------------------------|
--1---------------------------------3-4--3--1--0--7--6--|
--1---------------------------------3-4--3--1--0--7--6--|


  Q
-------||
-------||
-------||
-------||
-------||
-------||

Kerry King

      W                   W
D#||-------------------|--------------------||
A#||-------------------|--------------------||
F#||-------------------|-------------------*||
C#||-------------------|-------------------*||
G#||-------------------|--------------------||
C#||-------------------|--------------------||


   Q    E  E  Q    E  E     Q    E  E  Q    E  E
-------------------------|------------------------|
-------------------------|------------------------|
*------------------------|------------------------|
*------------------------|------------------------|
---0----L--0--0----L--0--|--0----L--0--0----L--0--|
---0----L--0--3----L--3--|--2----L--2--1----L--1--|


  Q    E  E  Q    E  E     Q    E  E  E  E  E  E
------------------------|-------------------------|
------------------------|-------------------------|
------------------------|-------------------------|
------------------------|-------------------------|
--0----L--0--0----L--0--|--0----L--0--2--3-----0--|
--0----L--0--3----L--3--|--2----L--0--2--3-----1--|


  Q    E  E  Q    E  E     Q    E  E  E  E  E  E
------------------------|-------------------------|
------------------------|-------------------------|
------------------------|-------------------------|
------------------------|-------------------------|
--0----L--0--0----L--0--|--0----L--0--2--3-----0--|
--0----L--0--3----L--3--|--2----L--0--2--3-----1--|


    Q    E  E  Q    E  E     Q    E  E  E  E  E  E   3x
|-------------------------|--------------------------||
|-------------------------|--------------------------||
|*------------------------|-------------------------*||
|*------------------------|-------------------------*||
|---0----L--0--0----L--0--|--0----L--0--2--3-----0---||
|---0----L--0--3----L--3--|--2----L--0--2--3-----1---||


  W                   S S E  E  S S S S E  S S E
-------------------|------------------------------|
-------------------|------------------------------|
-------------------|------------------------------|
-------------------|------------------------------|
-------------------|------------------------------|
-------------------|--1-0-0--0--0-0-0-0-0--1-0-0--|


  S S E  E  S S S S E  S S E
------------------------------|
------------------------------|
------------------------------|
------------------------------|
------------------------------|
--1-0-0--0--0-0-0-0-0--1-0-0--|


  S S E  E  S S S S E  S S E
------------------------------|
------------------------------|
------------------------------|
------------------------------|
------------------------------|
--1-0-0--0--0-0-0-0-0--1-0-0--|


  S S E  E  S S E  E  E  E
----------------------------|
----------------------------|
----------------------------|
----------------------------|
----------------1--3--4--6--|
--1-0-0--0--0-0-1--3--4--6--|


  S S E  E  S S S S E  S S E
------------------------------|
------------------------------|
------------------------------|
------------------------------|
------------------------------|
--1-0-0--0--0-0-0-0-0--1-0-0--|


  S S E  E  S S S S E  S S E
------------------------------|
------------------------------|
------------------------------|
------------------------------|
------------------------------|
--1-0-0--0--0-0-0-0-0--1-0-0--|


  S S E  E  S S S S E  S S E
------------------------------|
------------------------------|
------------------------------|
------------------------------|
------------------------------|
--1-0-0--0--0-0-0-0-0--1-0-0--|


  S S E  E  S S E  E  E  E
----------------------------|
----------------------------|
----------------------------|
----------------------------|
----------------1--3--4--6--|
--1-0-0--0--0-0-1--3--4--6--|


  S S E  E  S S S S E  S S E
------------------------------|
------------------------------|
------------------------------|
------------------------------|
------------------------------|
--1-0-0--0--0-0-0-0-0--1-0-0--|


  S S E  E  S S S S E  S S E
------------------------------|
------------------------------|
------------------------------|
------------------------------|
------------------------------|
--1-0-0--0--0-0-0-0-0--1-0-0--|


  S S E  E  S S S S E  S S E
------------------------------|
------------------------------|
------------------------------|
------------------------------|
------------------------------|
--1-0-0--0--0-0-0-0-0--1-0-0--|


  S S E  E  S S E  E  E  E
----------------------------|
----------------------------|
----------------------------|
----------------------------|
----------------1--3--4--6--|
--1-0-0--0--0-0-1--3--4--6--|


  S S E  E  S S S S E  S S E
------------------------------|
------------------------------|
------------------------------|
------------------------------|
------------------------------|
--1-0-0--0--0-0-0-0-0--1-0-0--|


  S S E  E  S S S S E  S S E
------------------------------|
------------------------------|
------------------------------|
------------------------------|
------------------------------|
--1-0-0--0--0-0-0-0-0--1-0-0--|


  S S E  E  S S S S E  S S E
------------------------------|
------------------------------|
------------------------------|
------------------------------|
------------------------------|
--1-0-0--0--0-0-0-0-0--1-0-0--|


  S S E  E  S S E  E  E  E     Q    E  E  Q    E  E
----------------------------|------------------------|
----------------------------|------------------------|
----------------------------|------------------------|
----------------------------|------------------------|
----------------1--3--4--6--|--0----L--0--0----L--0--|
--1-0-0--0--0-0-1--3--4--6--|--0----L--0--3----L--3--|


  Q    E  E  Q    E  E     Q    E  E  Q    E  E
------------------------|------------------------|
------------------------|------------------------|
------------------------|------------------------|
------------------------|------------------------|
--0----L--0--0----L--0--|--0----L--0--0----L--0--|
--2----L--2--1----L--1--|--0----L--0--3----L--3--|


  Q    E  E  E  E  E  E     Q    E  E  Q    E  E
-------------------------|------------------------|
-------------------------|------------------------|
-------------------------|------------------------|
-------------------------|------------------------|
--0----L--0--2--3-----0--|--0----L--0--0----L--0--|
--2----L--0--2--3-----1--|--0----L--0--3----L--3--|


  Q    E  E  Q    E  E     Q    E  E  Q    E  E
------------------------|------------------------|
------------------------|------------------------|
------------------------|------------------------|
------------------------|------------------------|
--0----L--0--0----L--0--|--0----L--0--0----L--0--|
--2----L--2--1----L--1--|--0----L--0--3----L--3--|


  Q    E  E  E  E  E  E
-------------------------|
-------------------------|
-------------------------|
-------------------------|
--0----L--0--2--3--------|
--2----L--0--2--3--------|


    First breath born come alive learn to kill
  S S                                          E  E  S S
---------------------------------------------------------|
---------------------------------------------------------|
---------------------------------------------------------|
---------------------------------------------------------|
---------------------------------------------------------|
--1-0------------------------------------------0--0--0-0-|


  S S E  E  S S S S E  S S E
------------------------------|
------------------------------|
------------------------------|
------------------------------|
------------------------------|
--1-0-0--0--0-0-0-0-0--1-0-0--|


  Bloodfest awaits to
  S                    S E  E  S S S S E  S S E
-------------------------------------------------|
-------------------------------------------------|
-------------------------------------------------|
-------------------------------------------------|
-------------------------------------------------|
--1--------------------0-0--0--0-0-0-0-0--1-0-0--|


      feed your hunger
  S S E                E  S S E  E  E  E
------------------------------------------|
------------------------------------------|
------------------------------------------|
------------------------------------------|
------------------------------1--3--4--6--|
--1-0-0----------------0--0-0-1--3--4--6--|


  Dark side has no rival
  S                       S E  E  S S S S E  S S E
----------------------------------------------------|
----------------------------------------------------|
----------------------------------------------------|
----------------------------------------------------|
----------------------------------------------------|
--1-----------------------0-0--0--0-0-0-0-0--1-0-0--|


    test your faith in blood
  S S                        E  E  S S S S E  S S E
-----------------------------------------------------|
-----------------------------------------------------|
-----------------------------------------------------|
-----------------------------------------------------|
-----------------------------------------------------|
--1-0------------------------0--0--0-0-0-0-0--1-0-0--|


  Night hides the hunting
  S                        S E  E  S S S S E  S S E
-----------------------------------------------------|
-----------------------------------------------------|
-----------------------------------------------------|
-----------------------------------------------------|
-----------------------------------------------------|
--1------------------------0-0--0--0-0-0-0-0--1-0-0--|


  packs a feeding frenzy
  S                       S E  E  S S E  E  E  E
--------------------------------------------------|
--------------------------------------------------|
--------------------------------------------------|
--------------------------------------------------|
--------------------------------------1--3--4--6--|
--1-----------------------0-0--0--0-0-1--3--4--6--|


       I kill you and your dreams tonite
  Q    E                                 E  Q    E  E
-------------------------------------------------------|
-------------------------------------------------------|
-------------------------------------------------------|
-------------------------------------------------------|
--0----L---------------------------------0--0----L--0--|
--0----L---------------------------------0--3----L--3--|


  Q    E  E  Q    E  E     Q    E  E  Q    E  E
------------------------|------------------------|
------------------------|------------------------|
------------------------|------------------------|
------------------------|------------------------|
--0----L--0--0----L--0--|--0----L--0--0----L--0--|
--2----L--2--1----L--1--|--0----L--0--3----L--3--|


  Q    E  E  E  E  E  E     Q    E  E  Q    E  E
-------------------------|------------------------|
-------------------------|------------------------|
-------------------------|------------------------|
-------------------------|------------------------|
--0----L--0--2--3-----0--|--0----L--0--0----L--0--|
--2----L--0--2--3-----1--|--0----L--0--3----L--3--|


  Q    E  E  Q    E  E     Q    E  E  Q    E  E
------------------------|------------------------|
------------------------|------------------------|
------------------------|------------------------|
------------------------|------------------------|
--0----L--0--0----L--0--|--0----L--0--0----L--0--|
--2----L--2--1----L--1--|--0----L--0--3----L--3--|


  Q    E  E  E  E  E  E
-------------------------|
-------------------------|
-------------------------|
-------------------------|
--0----L--0--2--3--------|
--2----L--0--2--3--------|


    S S E  E  E  E  E  E  E
|-----------------------------||
|-----------------------------||
|*---------------------------*||
|*---------------------------*||
|-------1--0--------3--2--1---||
|---1-3-------6--0------------||


  S S E  E  E  E  E  E  E     S S E  E  E  E  E  E  E
---------------------------|---------------------------|
---------------------------|---------------------------|
---------------------------|---------------------------|
---------------------------|---------------------------|
------1--0--------4--0-----|--1-3-4--3--1--0--7--6--5--|
--1-3-------6--0--4--0-----|--1-3-4--3--1--0--7--6--5--|


  S S E  E  E  E  E  E  E     S S E  E  E  E  E  E  E
---------------------------|---------------------------|
---------------------------|---------------------------|
---------------------------|---------------------------|
---------------------------|---------------------------|
--1-3-4--3--1--0--7--6--5--|--1-3-4--3--1--0--7--6--5--|
--1-3-4--3--1--0--7--6--5--|--1-3-4--3--1--0--7--6--5--|


  S S E  E  E  E  E  E  E     S S E  E  E  E  E  E  E
---------------------------|---------------------------|
---------------------------|---------------------------|
---------------------------|---------------------------|
---------------------------|---------------------------|
--1-3-4--3--1--0--7--6--5--|--1-3-4--3--1--0--7--6--5--|
--1-3-4--3--1--0--7--6--5--|--1-3-4--3--1--0--7--6--5--|


  S S E  E  E  E  E  E  E     S S E  E  E  E  E  E  E
---------------------------|---------------------------|
---------------------------|---------------------------|
---------------------------|---------------------------|
---------------------------|---------------------------|
--1-3-4--3--1--0--7--6--5--|--1-3-4--3--1--0--7--6--5--|
--1-3-4--3--1--0--7--6--5--|--1-3-4--3--1--0--7--6--5--|


  S S E  E  E  E  E  E  E     S S E  E  E  E  E  E  E
---------------------------|---------------------------|
---------------------------|---------------------------|
---------------------------|---------------------------|
---------------------------|---------------------------|
--1-3-4--3--1--0--7--6--5--|--1-3-4--3--1--0--7--6--5--|
--1-3-4--3--1--0--7--6--5--|--1-3-4--3--1--0--7--6--5--|


  S S E  E  E  E  E  E  E     S S E  E  E  E  E  E  E
---------------------------|---------------------------|
---------------------------|---------------------------|
---------------------------|---------------------------|
---------------------------|---------------------------|
--1-3-4--3--1--0--7--6--5--|--1-3-4--3--1--0--7--6--5--|
--1-3-4--3--1--0--7--6--5--|--1-3-4--3--1--0--7--6--5--|


  S S E  E  E  E  E  E  E     S S E  E  E  E  E  E  E
---------------------------|---------------------------|
---------------------------|---------------------------|
---------------------------|---------------------------|
---------------------------|---------------------------|
--1-3-4--3--1--0--7--6--5--|--1-3-4--3--1--0--7--6--5--|
--1-3-4--3--1--0--7--6--5--|--1-3-4--3--1--0--7--6--5--|


  S S E  E  E  E  E  E  E     S S E  E  E  E  E  E  E
---------------------------|---------------------------|
---------------------------|---------------------------|
---------------------------|---------------------------|
---------------------------|---------------------------|
--1-3-4--3--1--0--7--6--5--|--1-3-4--3--1--0--7--6--5--|
--1-3-4--3--1--0--7--6--5--|--1-3-4--3--1--0--7--6--5--|


  S S E  E  E  E  E  E  E     E  E  E  E  E  E  E  E
---------------------------|--------------------------|
---------------------------|--------------------------|
---------------------------|--------------------------|
---------------------------|--------------------------|
--1-3-4--3--1--0--7--6--5--|--3--2--2--3--2--2--3--2--|
--1-3-4--3--1--0--7--6--5--|--3--2--2--3--2--2--3--2--|


  Prepare to reign a thousand years ......
  E                                        E  E  E  E  E
---------------------------------------------------------|
---------------------------------------------------------|
---------------------------------------------------------|
---------------------------------------------------------|
--3----------------------------------------2--2--3--2--2-|
--3----------------------------------------2--2--3--2--2-|


  W                   W
-------------------|-------------------|
-------------------|-------------------|
-------------------|-------------------|
-------------------|-------------------|
-------------------|-------------------|
-------------------|-------------------|


  Q    E  E  Q    E  E     Q    E  E  E  E  E  E
------------------------|-------------------------|
------------------------|-------------------------|
------------------------|-------------------------|
------------------------|-------------------------|
--0----L--0--0----L--0--|--0----L--0--2--3-----0--|
--0----L--0--3----L--3--|--2----L--0--2--3-----1--|


  Q    E  E  Q    E  E     Q    E  E  Q    E  E
------------------------|------------------------|
------------------------|------------------------|
------------------------|------------------------|
------------------------|------------------------|
--0----L--0--0----L--0--|--0----L--0--0----L--0--|
--0----L--0--3----L--3--|--2----L--2--1----L--1--|


  Q    E  E  Q    E  E     Q    E  E  E  E  E  E
------------------------|-------------------------|
------------------------|-------------------------|
------------------------|-------------------------|
------------------------|-------------------------|
--0----L--0--0----L--0--|--0----L--0--2--3-----0--|
--0----L--0--3----L--3--|--2----L--0--2--3-----1--|


  Q    E  E  Q    E  E     Q    E  E  Q    E  E
------------------------|------------------------|
------------------------|------------------------|
------------------------|------------------------|
------------------------|------------------------|
--0----L--0--0----L--0--|--0----L--0--0----L--0--|
--0----L--0--3----L--3--|--2----L--2--1----L--1--|


  Q    E  E  Q    E  E     Q    E  E  E  E  E  E
------------------------|-------------------------|
------------------------|-------------------------|
------------------------|-------------------------|
------------------------|-------------------------|
--0----L--0--0----L--0--|--0----L--0--2--3-----0--|
--0----L--0--3----L--3--|--2----L--0--2--3-----1--|


  Q    E  E  Q    E  E     Q    E  E  Q    E  E
------------------------|------------------------|
------------------------|------------------------|
------------------------|------------------------|
------------------------|------------------------|
--0----L--0--0----L--0--|--0----L--0--0----L--0--|
--0----L--0--3----L--3--|--2----L--2--1----L--1--|


  Q    E  E  Q    E  E     Q    E  E  E  E  E  E
------------------------|-------------------------|
------------------------|-------------------------|
------------------------|-------------------------|
------------------------|-------------------------|
--0----L--0--0----L--0--|--0----L--0--2--3-----0--|
--0----L--0--3----L--3--|--2----L--0--2--3-----1--|


  Q    E  E  Q    E  E     Q    E  E  Q    E  E
------------------------|------------------------|
------------------------|------------------------|
------------------------|------------------------|
------------------------|------------------------|
--0----L--0--0----L--0--|--0----L--0--0----L--0--|
--0----L--0--3----L--3--|--2----L--2--1----L--1--|


  Q    E  E  Q    E  E     Q    E  E  E  E  E  E
------------------------|-------------------------|
------------------------|-------------------------|
------------------------|-------------------------|
------------------------|-------------------------|
--0----L--0--0----L--0--|--0----L--0--2--3-----0--|
--0----L--0--3----L--3--|--2----L--0--2--3-----1--|


    The god chosen children
  S S                       E  E  E  E  E  E  E
-------------------------------------------------|
-------------------------------------------------|
-------------------------------------------------|
-------------------------------------------------|
--1-3-----------------------4--3--1--0--7--6--5--|
--1-3-----------------------4--3--1--0--7--6--5--|


    As you die I'm immortal
  S S                       E  E  E  E  E  E  E
-------------------------------------------------|
-------------------------------------------------|
-------------------------------------------------|
-------------------------------------------------|
--1-3-----------------------4--3--1--0--7--6--5--|
--1-3-----------------------4--3--1--0--7--6--5--|


      Faithless no religion
  S S E                     E  E  E  E  E  E
----------------------------------------------|
----------------------------------------------|
----------------------------------------------|
----------------------------------------------|
--1-3-4---------------------3--1--0--7--6--5--|
--1-3-4---------------------3--1--0--7--6--5--|


  S S E  E  E  E  E  E  E
---------------------------|
---------------------------|
---------------------------|
---------------------------|
--1-3-4--3--1--0--7--6--5--|
--1-3-4--3--1--0--7--6--5--|


      Captive blood enslavement
  S S E                         E  E  E  E  E  E
--------------------------------------------------|
--------------------------------------------------|
--------------------------------------------------|
--------------------------------------------------|
--1-3-4-------------------------3--1--0--7--6--5--|
--1-3-4-------------------------3--1--0--7--6--5--|


  Pain and hunger drives your madness
  S                                   S E  E  E  E  E  E
---------------------------------------------------------|
---------------------------------------------------------|
---------------------------------------------------------|
---------------------------------------------------------|
--1-----------------------------------3-4--3--1--0--7--6-|
--1-----------------------------------3-4--3--1--0--7--6-|


  Drink flesh life itself
  S                       S E  E  E  E  E  E  E
-------------------------------------------------|
-------------------------------------------------|
-------------------------------------------------|
-------------------------------------------------|
--1-----------------------3-4--3--1--0--7--6--5--|
--1-----------------------3-4--3--1--0--7--6--5--|


  Drink flesh life itself
  S                       S E  E  E  E  E  E  E
-------------------------------------------------|
-------------------------------------------------|
-------------------------------------------------|
-------------------------------------------------|
--1-----------------------3-4--3--1--0--7--6--5--|
--1-----------------------3-4--3--1--0--7--6--5--|


-----||
-----||
-----||
-----||
-----||
-----||

Duration Legend
---------------
W - whole
H - half
Q - quarter
E - 8th
S - 16th
T - 32nd
X - 64th
. - note dotted
|-n-|  - n-tuplets


Tablature Legend
----------------
L - tied note
x - dead note
g - grace note
(n) - ghost note
> - accentuded note
NH - natural harmonic
AH - artificial harmonic
TH - tapped harmonic
SH - semi harmonic
PH - pitch harmonic
h - hammer on
p - pull off
b - bend
br - bendRelease
pb - preBend
pbr - preBendRelease
brb - bendReleaseBend
\n/ - tremolo bar dip
\n - tremolo bar dive
-/n - tremolo bar Release up
/n\ - tremolo bar inverted dip
/n - tremolo bar return
-\n - tremolo bar Release down
S - shift slide
s - legato slide
/ -  slide into from below or out of upwards
\ -  slide into from above or out of downwards
~ - vibrato
W - wide vibrato
tr - trill
TP - tremolo picking
T - tapping
S - slap
P - pop
< - fade in
^ - brush up
v - brush down
Tap to rate this tab
 
# A B C D E F G H I J K L M N O P Q R S T U V W X Y Z