Song name
# A B C D E F G H I J K L M N O P Q R S T U V W X Y Z

Slayer - Crionics tab

Crionics - Slayer

****************************************************************************

The solo (Jeff) and the intro were requested, so I thought: just tab the wholo damn song. 
Have fun.

****************************************************************************

Kerry King

     W                 
E||-------------------|
B||-------------------|
G||-------------------|
D||-------------------|
A||-------------------|
E||-------------------|


  |--3-|  |--3--|  |--3-|  |--3--|   
  Q    E  E  E  E  Q    E  E  E  E   
------------------------------------|
------------------------------------|
------------------------------------|
------------------------------------|
--9----------------9----------------|
--7----7--7--7--7--7----7--7--7--7--|


  |--3-|  |--3--|               
  Q    E  E  E  E   Q     Q     
-------------------------------|
-------------------------------|
-------------------------------|
-------------------------------|
--9----------------10----12----|
--7----7--7--7--7---8----10----|


  |--3-|  |--3--|  |--3-|  |--3--|   
  Q    E  E  E  E  Q    E  E  E  E   
------------------------------------|
------------------------------------|
------------------------------------|
------------------------------------|
--9----------------9----------------|
--7----7--7--7--7--7----7--7--7--7--|


  |--3-|  |--3--|  |-3|          
  Q    E  E  E  E  E  Q    Q     
--------------------------------|
--------------------------------|
--------------------------------|
--------------------------------|
--9----------------9--7----L----|
--7----7--7--7--7--7--5----L----|


  |--3-|  |--3--|  |--3-|  |--3--|   
  Q    E  E  E  E  Q    E  E  E  E   
------------------------------------|
------------------------------------|
------------------------------------|
------------------------------------|
--9----------------9----------------|
--7----7--7--7--7--7----7--7--7--7--|


  |--3-|  |--3--|               
  Q    E  E  E  E   Q     Q     
-------------------------------|
-------------------------------|
-------------------------------|
-------------------------------|
--9----------------10----12----|
--7----7--7--7--7---8----10----|


  |--3-|  |--3--|  |--3-|  |--3--|   
  Q    E  E  E  E  Q    E  E  E  E   
------------------------------------|
------------------------------------|
------------------------------------|
------------------------------------|
--9----------------9----------------|
--7----7--7--7--7--7----7--7--7--7--|


  |--3-|  |--3--|  |-3|          
  Q    E  E  E  E  E  Q    Q     
--------------------------------|
--------------------------------|
--------------------------------|
--------------------------------|
--9----------------9--7----L----|
--7----7--7--7--7--7--5----L----|


  |--3-|  |--3--|  |--3-|  |--3--|   
  Q    E  E  E  E  Q    E  E  E  E   
------------------------------------|
------------------------------------|
------------------------------------|
------------------------------------|
--9----------------9----------------|
--7----7--7--7--7--7----7--7--7--7--|


  |--3-|  |--3--|               
  Q    E  E  E  E   Q     Q     
-------------------------------|
-------------------------------|
-------------------------------|
-------------------------------|
--9----------------10----12----|
--7----7--7--7--7---8----10----|


  |--3-|  |--3--|  |--3-|  |--3--|   
  Q    E  E  E  E  Q    E  E  E  E   
------------------------------------|
------------------------------------|
------------------------------------|
------------------------------------|
--9----------------9----------------|
--7----7--7--7--7--7----7--7--7--7--|


  |--3-|  |--3--|  |-3|          
  Q    E  E  E  E  E  Q    Q     
--------------------------------|
--------------------------------|
--------------------------------|
--------------------------------|
--9----------------9--7----L----|
--7----7--7--7--7--7--5----L----|


  |--3-|  |--3--|  |--3-|  |--3--|   
  Q    E  E  E  E  Q    E  E  E  E   
------------------------------------|
------------------------------------|
------------------------------------|
------------------------------------|
--9----------------9----------------|
--7----7--7--7--7--7----7--7--7--7--|


  |--3-|  |--3--|               
  Q    E  E  E  E   Q     Q     
-------------------------------|
-------------------------------|
-------------------------------|
-------------------------------|
--9----------------10----12----|
--7----7--7--7--7---8----10----|


  |--3-|  |--3--|  |--3-|  |--3--|   
  Q    E  E  E  E  Q    E  E  E  E   
------------------------------------|
------------------------------------|
------------------------------------|
------------------------------------|
--9----------------9----------------|
--7----7--7--7--7--7----7--7--7--7--|


  |----3----|    |----3----|     
  Q    Q    Q    Q    Q    Q     
--------------------------------|
--------------------------------|
--------------------------------|
--------------------------------|
--9----7----7----7----7----7----|
--7----5----5----5----5----5----|


    1st verse                               
    |----3----|  |--3--|  |--3-|  |--3--|   
    Q         E  E  E  E  Q    E  E  E  E   
|------------------------------------------|
|------------------------------------------|
|*-----------------------------------------|
|*-----------------------------------------|
|---9---------------------9----------------|
|---7---------7--7--7--7--7----7--7--7--7--|


  |--3-|  |--3--|               
  Q    E  E  E  E   Q     Q     
-------------------------------|
-------------------------------|
-------------------------------|
-------------------------------|
--9----------------10----12----|
--7----7--7--7--7---8----10----|


  |--3-|  |--3--|  |--3-|  |--3--|   
  Q    E  E  E  E  Q    E  E  E  E   
------------------------------------|
------------------------------------|
------------------------------------|
------------------------------------|
--9----------------9----------------|
--7----7--7--7--7--7----7--7--7--7--|


  |--3-|  |--3--|  |-3|          
  Q    E  E  E  E  E  Q    Q     
--------------------------------|
--------------------------------|
--------------------------------|
--------------------------------|
--9----------------9--7----L----|
--7----7--7--7--7--7--5----L----|


  |--3-|  |--3--|  |--3-|  |--3--|   
  Q    E  E  E  E  Q    E  E  E  E   
------------------------------------|
------------------------------------|
------------------------------------|
------------------------------------|
--9----------------9----------------|
--7----7--7--7--7--7----7--7--7--7--|


  |--3-|  |--3--|               
  Q    E  E  E  E   Q     Q     
-------------------------------|
-------------------------------|
-------------------------------|
-------------------------------|
--9----------------10----12----|
--7----7--7--7--7---8----10----|


  |--3-|  |--3--|  |--3-|  |--3--|   
  Q    E  E  E  E  Q    E  E  E  E   
------------------------------------|
------------------------------------|
------------------------------------|
------------------------------------|
--9----------------9----------------|
--7----7--7--7--7--7----7--7--7--7--|


  |--3-|  |--3--|  |-3|          
  Q    E  E  E  E  E  Q    Q     
--------------------------------|
--------------------------------|
--------------------------------|
--------------------------------|
--9----------------9--7----L----|
--7----7--7--7--7--7--5----L----|


  |--3-|  |--3--|  |--3-|  |--3--|   
  Q    E  E  E  E  Q    E  E  E  E   
------------------------------------|
------------------------------------|
------------------------------------|
------------------------------------|
--5----------------5----------------|
--3----3--3--3--3--3----3--3--3--3--|


  |--3-|  |--3--|  |--3-|  |--3--|   
  Q    E  E  E  E  Q    E  E  E  E   
------------------------------------|
------------------------------------|
------------------------------------|
------------------------------------|
--7----------------7----------------|
--5----5--5--5--5--5----5--5--5--5--|


  |--3-|  |--3--|  |--3-|  |--3--|   
  Q    E  E  E  E  Q    E  E  E  E   
------------------------------------|
------------------------------------|
------------------------------------|
------------------------------------|
--9----------------9----------------|
--7----7--7--7--7--7----7--7--7--7--|


  |--3-|  |--3--|               
  Q    E  E  E  E   Q     Q     
-------------------------------|
-------------------------------|
-------------------------------|
-------------------------------|
--9----------------10----12----|
--7----7--7--7--7---8----10----|


  |--3-|  |--3--|  |--3-|  |--3--|   
  Q    E  E  E  E  Q    E  E  E  E   
------------------------------------|
------------------------------------|
------------------------------------|
------------------------------------|
--5----------------5----------------|
--3----3--3--3--3--3----3--3--3--3--|


  A5                                 
  |--3-|  |--3--|  |--3-|  |--3--|   
  Q    E  E  E  E  Q    E  E  E  E   
------------------------------------|
------------------------------------|
------------------------------------|
------------------------------------|
--7----------------7----------------|
--5----5--5--5--5--5----5--5--5--5--|


  |--3-|  |--3--|  |--3-|  |--3--|   
  Q    E  E  E  E  Q    E  E  E  E   
------------------------------------|
------------------------------------|
------------------------------------|
------------------------------------|
--9----------------9----------------|
--7----7--7--7--7--7----7--7--7--7--|


  |--3-|  |--3--|               
  Q    E  E  E  E   Q     Q     
-------------------------------|
-------------------------------|
-------------------------------|
-------------------------------|
--9----------------10----12----|
--7----7--7--7--7---8----10----|


  B5                                 
  |--3-|  |--3--|  |--3-|  |--3--|   
  Q    E  E  E  E  Q    E  E  E  E   
------------------------------------|
------------------------------------|
------------------------------------|
------------------------------------|
--9----------------9----------------|
--7----7--7--7--7--7----7--7--7--7--|


                    C5    D5                         
  |--3-|  |--3--|                                    
  Q    E  E  E  E   Q     Q       H        H         
-------------------------------|--------------------|
-------------------------------|--------------------|
-------------------------------|--------------------|
-------------------------------|--------------------|
--9----------------10----12----|--9--------7--------|
--7----7--7--7--7---8----10----|--7--------5--------|


  H         H           H        H         
---------------------|--------------------|
---------------------|--------------------|
---------------------|--------------------|
---------------------|--------------------|
--5--------12--------|--9--------7--------|
--3--------10--------|--7--------5--------|


  H         H         
---------------------|
---------------------|
---------------------|
---------------------|
--5--------12--------|
--3--------10--------|


  B5                                 
  |--3-|  |--3--|  |--3-|  |--3--|   
  Q    E  E  E  E  Q    E  E  E  E   
------------------------------------|
------------------------------------|
------------------------------------|
------------------------------------|
--9----------------9----------------|
--7----7--7--7--7--7----7--7--7--7--|


                    C5    D5    
  |--3-|  |--3--|               
  Q    E  E  E  E   Q     Q     
-------------------------------|
-------------------------------|
-------------------------------|
-------------------------------|
--9----------------10----12----|
--7----7--7--7--7---8----10----|


  B5                                 
  |--3-|  |--3--|  |--3-|  |--3--|   
  Q    E  E  E  E  Q    E  E  E  E   
------------------------------------|
------------------------------------|
------------------------------------|
------------------------------------|
--9----------------9----------------|
--7----7--7--7--7--7----7--7--7--7--|


  A5                               
  |----3----|    |----3----|       
  Q    Q    Q    Q    Q    Q       
---------------------------------||
---------------------------------||
--------------------------------*||
--------------------------------*||
--7----7----7----7----7----7-----||
--5----5----5----5----5----5-----||


   D5                                  
   |-----3-----|     |-----3-----|     
   Q     Q     Q     Q     Q     Q     
--------------------------------------|
--------------------------------------|
--------------------------------------|
--------------------------------------|
--12----12----12----12----12----12----|
--10----10----10----10----10----10----|


  Interlude                                   
  |------3-----|  |--3--|  |--3--|  |--3--|   
  E         E  E  E  E  E  E  E  E  E  E  E   
---------------------------------------------|
---------------------------------------------|
---------------------------------------------|
---------------------------------------------|
------------------4-----------------4--------|
--5---------5--5-----5--3--5--5--5-----5--3--|


  |--3--|  |--3--|  |--3--|  |--3--|   
  E  E  E  E  E  E  E  E  E  E  E  E   
--------------------------------------|
--------------------------------------|
--------------------------------------|
--------------------------------------|
-----------4-----------------4--------|
--5--5--5-----5--3--5--5--5-----5--3--|


  |--3--|  |--3--|  |--3--|  |--3--|   
  E  E  E  E  E  E  E  E  E  E  E  E   
--------------------------------------|
--------------------------------------|
--------------------------------------|
--------------------------------------|
-----------6-----------------6--------|
--7--7--7-----7--5--7--7--7-----7--5--|


  |--3--|  |--3--|  |--3--|  |--3--|   
  E  E  E  E  E  E  E  E  E  E  E  E   
--------------------------------------|
--------------------------------------|
--------------------------------------|
--------------------------------------|
-----------6-----------------6--------|
--7--7--7-----7--5--7--7--7-----7--5--|


  |--3--|  |--3--|  |--3--|  |--3--|   
  E  E  E  E  E  E  E  E  E  E  E  E   
--------------------------------------|
--------------------------------------|
--------------------------------------|
--------------------------------------|
-----------2-----------------2--------|
--3--3--3-----3--1--3--3--3-----3--1--|


  |--3--|  |--3--|  |--3--|  |--3--|   
  E  E  E  E  E  E  E  E  E  E  E  E   
--------------------------------------|
--------------------------------------|
--------------------------------------|
--------------------------------------|
-----------2-----------------2--------|
--3--3--3-----3--1--3--3--3-----3--1--|


  |--3--|  |--3--|  |--3--|  |--3--|   
  E  E  E  E  E  E  E  E  E  E  E  E   
--------------------------------------|
--------------------------------------|
--------------------------------------|
--------------------------------------|
-----------4-----------------4--------|
--5--5--5-----5--3--5--5--5-----5--3--|


  |--3--|  |--3--|  |--3--|  |--3--|   
  E  E  E  E  E  E  E  E  E  E  E  E   
--------------------------------------|
--------------------------------------|
--------------------------------------|
--------------------------------------|
-----------4-----------------4--------|
--5--5--5-----5--3--5--5--5-----5--3--|


    |--3--|       |--3--|        
    E  E  E  Q    E  E  E  Q     
|-------------------------------|
|-------------------------------|
|*-----------7-------------7----|
|*-----------7-------------7----|
|-------------------------------|
|---7--7--7-------7--7--7-------|


  |--3--|                    
  E  E  E  E  E  H         4x
---------------------------||
---------------------------||
-----------7--9--L--------*||
-----------7--9--L--------*||
---------------------------||
--7--7--7------------------||


   |---3---|  |---3--|   |---3---|  |---3--|   
   E   E   E  E   E  E   E   E   E  E   E  E   
----------------------------------------------|
----------------------------------------------|
--------------9---------------------9---------|
--10--10--10-----10--8--10--10--10-----10--8--|
----------------------------------------------|
----------------------------------------------|


   |---3---|  |---3--|   |---3---|  |---3--|   
   E   E   E  E   E  E   E   E   E  E   E  E   
----------------------------------------------|
----------------------------------------------|
--------------9---------------------9---------|
--10--10--10-----10--8--10--10--10-----10--8--|
----------------------------------------------|
----------------------------------------------|


   |---3---|   |---3---|   |---3---|   |---3---|   
   E   E   E   E   E   E   E   E   E   E   E   E   
--------------------------------------------------|
--------------------------------------------------|
--------------11----------------------11----------|
--12--12--12------12--10--12--12--12------12--10--|
--------------------------------------------------|
--------------------------------------------------|


   |---3---|   |---3---|   |---3---|   |---3---|   
   E   E   E   E   E   E   E   E   E   E   E   E   
--------------------------------------------------|
--------------------------------------------------|
--------------11----------------------11----------|
--12--12--12------12--10--12--12--12------12--10--|
--------------------------------------------------|
--------------------------------------------------|


   |---3---|   |---3---|   |---3---|   |---3---|   
   E   E   E   E   E   E   E   E   E   E   E   E   
--------------------------------------------------|
--------------------------------------------------|
--------------16----------------------16----------|
--17--17--17------17--15--17--17--17------17--15--|
--------------------------------------------------|
--------------------------------------------------|


   |---3---|   |---3---|   |---3---|   |---3---|   
   E   E   E   E   E   E   E   E   E   E   E   E   
--------------------------------------------------|
--------------------------------------------------|
--------------16----------------------16----------|
--17--17--17------17--15--17--17--17------17--15--|
--------------------------------------------------|
--------------------------------------------------|


   |---3---|   |---3---|   |---3---|   |---3---|   
   E   E   E   E   E   E   E   E   E   E   E   E   
--------------------------------------------------|
--------------------------------------------------|
--------------13----------------------13----------|
--14--14--14------14--12--14--14--14------14--12--|
--------------------------------------------------|
--------------------------------------------------|


   |---3---|   |---3---|   |---3---|   |---3---|   
   E   E   E   E   E   E   E   E   E   E   E   E   
--------------------------------------------------|
--------------------------------------------------|
--------------13----------------------13----------|
--14--14--14------14--12--14--14--14------14--12--|
--------------------------------------------------|
--------------------------------------------------|


  B5                                 
  |--3-|  |--3--|  |--3-|  |--3--|   
  Q    E  E  E  E  Q    E  E  E  E   
------------------------------------|
------------------------------------|
------------------------------------|
------------------------------------|
--9----------------9----------------|
--7----7--7--7--7--7----7--7--7--7--|


                    C5    D5    
  |--3-|  |--3--|               
  Q    E  E  E  E   Q     Q     
-------------------------------|
-------------------------------|
-------------------------------|
-------------------------------|
--9----------------10----12----|
--7----7--7--7--7---8----10----|


  B5                                 
  |--3-|  |--3--|  |--3-|  |--3--|   
  Q    E  E  E  E  Q    E  E  E  E   
------------------------------------|
------------------------------------|
------------------------------------|
------------------------------------|
--9----------------9----------------|
--7----7--7--7--7--7----7--7--7--7--|


  A5                             
  |----3----|    |----3----|     
  Q    Q    Q    Q    Q    Q     
--------------------------------|
--------------------------------|
--------------------------------|
--------------------------------|
--7----7----7----7----7----7----|
--5----5----5----5----5----5----|


    E  S S E  S S E  S S E  E   
|------------------------------|
|------------------------------|
|*-----------------------------|
|*-----------------------------|
|---9------9------9------9--7--|
|---7--7-7-7--7-7-7--7-7-7--5--|


  E  S S E  S S E  S S E  E   
-----------------------------|
-----------------------------|
-----------------------------|
-----------------------------|
--9------9------9------9--7--|
--7--7-7-7--7-7-7--7-7-7--5--|


  G5                      F#5  
  E  S S E  S S E  S S E  E    
------------------------------|
------------------------------|
------------------------------|
------------------------------|
--5------5------5------5--4---|
--3--3-3-3--3-3-3--3-3-3--2---|


  G5                      A5    
  E  S S E  S S E  S S E  E     
------------------------------||
------------------------------||
-----------------------------*||
-----------------------------*||
--5------5------5------5--7---||
--3--3-3-3--3-3-3--3-3-3--5---||


  E  S S S S S S S S S S S S S S  
---------------------------------|
---------------------------------|
-----4-5-4-----------------------|
-----------5-4---4-5-4-5-4-------|
---------------7-----------7-5-4-|
--7------------------------------|


  E  S S S S S S S S S S S S S S  
---------------------------------|
---------------------------------|
-----4-5-4-----------------------|
-----------5-4---4-5-4-5-4-------|
---------------7-----------7-5-4-|
--7------------------------------|


  E  S S S S S S S S S S S S S S  
---------------------------------|
---------------------------------|
-----4-5-4-----------------------|
-----------5-4---4-5-4-5-4-------|
---------------7-----------7-5-4-|
--7------------------------------|


  E  S S S S S S S S S S S S S S  
---------------------------------|
---------------------------------|
-----4-5-4-----------------------|
-----------5-4---4-5-4-5-4-------|
---------------7-----------7-5-4-|
--7------------------------------|


    E  S S S S S S S S S S S S S S  
|----------------------------------|
|----------------------------------|
|*-----4-5-4-----------------------|
|*-----------5-4---4-5-4-5-4-------|
|----------------7-----------7-5-4-|
|---7------------------------------|


  E  S S S S S S S S S S S S S S  
---------------------------------|
---------------------------------|
-----4-5-4-----------------------|
-----------5-4---4-5-4-5-4-------|
---------------7-----------7-5-4-|
--7------------------------------|


  E  S S S S S S S S S S S S S S  
---------------------------------|
---------------------------------|
-----4-5-4-----------------------|
-----------5-4---4-5-4-5-4-------|
---------------7-----------7-5-4-|
--7------------------------------|


  E  S S S S S S S S S S S S S S    
----------------------------------||
----------------------------------||
-----4-5-4-----------------------*||
-----------5-4---4-5-4-5-4-------*||
---------------7-----------7-5-4--||
--7-------------------------------||


                             |-3-|  
  E  S S S S S S S S S S S S S S S  
-----------------------------------|
-------------------------------7-8-|
-----4-5-4-------------------9-----|
-----------5-4---4-5-4-5-4---------|
---------------7-----------7-------|
--7--------------------------------|


   |-6-| |-6-|  |-6-| |-6-|  |-6-| |-6-|  |-6-| |-6-|  
   S S S S S S  S S S S S S  S S S S S S  S S S S S S  
------------------------------------------------------|
--10-8-7---7-8-10-8-7---7-8-10-8-7---7-8-10-8-7---7-8-|
---------9------------9------------9------------9-----|
------------------------------------------------------|
------------------------------------------------------|
------------------------------------------------------|


   |-6-| |-6-|  |-6-| |-6-|  |-3-|            
   S S S S S S  S S S S S S  S S S E  S S E   
---------------------------------------------|
--10-8-7---7-8-10-8-7---7-8-10-8-7-----------|
---------9------------9------------7--9-7-6--|
---------------------------------------------|
---------------------------------------------|
---------------------------------------------|


                          |-3|     |-3|                 
  H        Q.       E     E  S S S E  S S S Q.     S S  
-----------------------|-------------------------------|
-----------------------|-------------------------------|
--4--------4br------4--|--7--6-L-4-6-----------------7-|
-----------------------|--------------7-L-5-L------9---|
-----------------------|-------------------------------|
-----------------------|-------------------------------|


  E.   S  E  E    S S S S Q     
-------------------------------|
-------------------------------|
--9b---9b-L--9br--L-L-7---7----|
------------------------9------|
-------------------------------|
-------------------------------|


   S  S  E   S  S  E   E  Q     E   
-----------------------------------|
-------------------------------10--|
--12-11----------------------------|
--------12--12-11-----11--L--------|
------------------12---------------|
-----------------------------------|


   S   S E   S   S E   S   S E   E    E    
------------------------------------------|
--10br-L-L--12br-L-L--13br-L-L--13b--15b--|
------------------------------------------|
------------------------------------------|
------------------------------------------|
------------------------------------------|


   Q      Q     S  S  S  S  Q     
---------------------------------|
--17b----17b----L-15-17-15-------|
---------------------------16----|
---------------------------------|
---------------------------------|
---------------------------------|


   Q     Q    H           E  S S E  S S E  S S E  E   
--19b------------------|-----------------------------|
-----------------------|-----------------------------|
-----------------------|-----------------------------|
-----------------------|-----------------------------|
-----------------------|--9------9------9------9--7--|
-----------------------|--7--7-7-7--7-7-7--7-7-7--5--|


  G5                      F#5  
  E  S S E  S S E  S S E  E    
------------------------------|
------------------------------|
------------------------------|
------------------------------|
--5------5------5------5--4---|
--3--3-3-3--3-3-3--3-3-3--2---|


  G5                      A5  
  E  S S E  S S E  S S E  E   
-----------------------------|
-----------------------------|
-----------------------------|
-----------------------------|
--5------5------5------5--7--|
--3--3-3-3--3-3-3--3-3-3--5--|


  E  S S E  S S E  S S E  E   
-----------------------------|
-----------------------------|
-----------------------------|
-----------------------------|
--9------9------9------9--7--|
--7--7-7-7--7-7-7--7-7-7--5--|


  E  S S E  S S E  S S E  E   
-----------------------------|
-----------------------------|
-----------------------------|
-----------------------------|
--9------9------9------9--7--|
--7--7-7-7--7-7-7--7-7-7--5--|


  G5                      F#5  
  E  S S E  S S E  S S E  E    
------------------------------|
------------------------------|
------------------------------|
------------------------------|
--5------5------5------5--4---|
--3--3-3-3--3-3-3--3-3-3--2---|


  G5                      A5  
  E  S S E  S S E  S S E  E   
-----------------------------|
-----------------------------|
-----------------------------|
-----------------------------|
--5------5------5------5--7--|
--3--3-3-3--3-3-3--3-3-3--5--|


    E  S S S S S S S S S S S S S S  
|----------------------------------|
|----------------------------------|
|*-----4-5-4-----------------------|
|*-----------5-4---4-5-4-5-4-------|
|----------------7-----------7-5-4-|
|---7------------------------------|


  E  S S S S S S S S S S S S S S  
---------------------------------|
---------------------------------|
-----4-5-4-----------------------|
-----------5-4---4-5-4-5-4-------|
---------------7-----------7-5-4-|
--7------------------------------|


  E  S S S S S S S S S S S S S S  
---------------------------------|
---------------------------------|
-----4-5-4-----------------------|
-----------5-4---4-5-4-5-4-------|
---------------7-----------7-5-4-|
--7------------------------------|


  E  S S S S S S S S S S S S S S    
----------------------------------||
----------------------------------||
-----4-5-4-----------------------*||
-----------5-4---4-5-4-5-4-------*||
---------------7-----------7-5-4--||
--7-------------------------------||


  Q    Q    H           W                 
---------------------|-------------------|
---------------------|-------------------|
---------------------|-------------------|
---------------------|-------------------|
--9------------------|-------------------|
--7------------------|-------------------|


-------------------||
-------------------||
-------------------||
-------------------||
-------------------||
-------------------||

Jeff Hanneman

     W                 
E||-------------------|
B||-------------------|
G||-------------------|
D||-------------------|
A||-------------------|
E||-------------------|


  |--3-|  |--3--|  |--3-|  |--3--|   
  Q    E  E  E  E  Q    E  E  E  E   
------------------------------------|
------------------------------------|
------------------------------------|
------------------------------------|
--9----------------9----------------|
--7----7--7--7--7--7----7--7--7--7--|


  |--3-|  |--3--|               
  Q    E  E  E  E   Q     Q     
-------------------------------|
-------------------------------|
-------------------------------|
-------------------------------|
--9----------------10----12----|
--7----7--7--7--7---8----10----|


  |--3-|  |--3--|  |--3-|  |--3--|   
  Q    E  E  E  E  Q    E  E  E  E   
------------------------------------|
------------------------------------|
------------------------------------|
------------------------------------|
--9----------------9----------------|
--7----7--7--7--7--7----7--7--7--7--|


  |--3-|  |--3--|  |-3|          
  Q    E  E  E  E  E  Q    Q     
--------------------------------|
--------------------------------|
--------------------------------|
--------------------------------|
--9----------------9--7----L----|
--7----7--7--7--7--7--5----L----|


  |--3-|  |--3--|  |--3-|  |--3--|   
  Q    E  E  E  E  Q    E  E  E  E   
------------------------------------|
------------------------------------|
------------------------------------|
------------------------------------|
--9----------------9----------------|
--7----7--7--7--7--7----7--7--7--7--|


  |--3-|  |--3--|               
  Q    E  E  E  E   Q     Q     
-------------------------------|
-------------------------------|
-------------------------------|
-------------------------------|
--9----------------10----12----|
--7----7--7--7--7---8----10----|


  |--3-|  |--3--|  |--3-|  |--3--|   
  Q    E  E  E  E  Q    E  E  E  E   
------------------------------------|
------------------------------------|
------------------------------------|
------------------------------------|
--9----------------9----------------|
--7----7--7--7--7--7----7--7--7--7--|


  |--3-|  |--3--|  |-3|          
  Q    E  E  E  E  E  Q    Q     
--------------------------------|
--------------------------------|
--------------------------------|
--------------------------------|
--9----------------9--7----L----|
--7----7--7--7--7--7--5----L----|


  |--3-|  |--3--|  |--3-|  |--3--|   
  Q    E  E  E  E  Q    E  E  E  E   
------------------------------------|
------------------------------------|
------------------------------------|
------------------------------------|
--9----------------9----------------|
--7----7--7--7--7--7----7--7--7--7--|


  |--3-|  |--3--|               
  Q    E  E  E  E   Q     Q     
-------------------------------|
-------------------------------|
-------------------------------|
-------------------------------|
--9----------------10----12----|
--7----7--7--7--7---8----10----|


  |--3-|  |--3--|  |--3-|  |--3--|   
  Q    E  E  E  E  Q    E  E  E  E   
------------------------------------|
------------------------------------|
------------------------------------|
------------------------------------|
--9----------------9----------------|
--7----7--7--7--7--7----7--7--7--7--|


  |--3-|  |--3--|  |-3|          
  Q    E  E  E  E  E  Q    Q     
--------------------------------|
--------------------------------|
--------------------------------|
--------------------------------|
--9----------------9--7----L----|
--7----7--7--7--7--7--5----L----|


  |--3-|  |--3--|  |--3-|  |--3--|   
  Q    E  E  E  E  Q    E  E  E  E   
------------------------------------|
------------------------------------|
------------------------------------|
------------------------------------|
--9----------------9----------------|
--7----7--7--7--7--7----7--7--7--7--|


  |--3-|  |--3--|               
  Q    E  E  E  E   Q     Q     
-------------------------------|
-------------------------------|
-------------------------------|
-------------------------------|
--9----------------10----12----|
--7----7--7--7--7---8----10----|


  |--3-|  |--3--|  |--3-|  |--3--|   
  Q    E  E  E  E  Q    E  E  E  E   
------------------------------------|
------------------------------------|
------------------------------------|
------------------------------------|
--9----------------9----------------|
--7----7--7--7--7--7----7--7--7--7--|


  |----3----|    |----3----|     
  Q    Q    Q    Q    Q    Q     
--------------------------------|
--------------------------------|
--------------------------------|
--------------------------------|
--9----7----7----7----7----7----|
--7----5----5----5----5----5----|


    1st verse                               
    |----3----|  |--3--|  |--3-|  |--3--|   
    Q         E  E  E  E  Q    E  E  E  E   
|------------------------------------------|
|------------------------------------------|
|*-----------------------------------------|
|*-----------------------------------------|
|---9---------------------9----------------|
|---7---------7--7--7--7--7----7--7--7--7--|


  |--3-|  |--3--|               
  Q    E  E  E  E   Q     Q     
-------------------------------|
-------------------------------|
-------------------------------|
-------------------------------|
--9----------------10----12----|
--7----7--7--7--7---8----10----|


  |--3-|  |--3--|  |--3-|  |--3--|   
  Q    E  E  E  E  Q    E  E  E  E   
------------------------------------|
------------------------------------|
------------------------------------|
------------------------------------|
--9----------------9----------------|
--7----7--7--7--7--7----7--7--7--7--|


  |--3-|  |--3--|  |-3|          
  Q    E  E  E  E  E  Q    Q     
--------------------------------|
--------------------------------|
--------------------------------|
--------------------------------|
--9----------------9--7----L----|
--7----7--7--7--7--7--5----L----|


  |--3-|  |--3--|  |--3-|  |--3--|   
  Q    E  E  E  E  Q    E  E  E  E   
------------------------------------|
------------------------------------|
------------------------------------|
------------------------------------|
--9----------------9----------------|
--7----7--7--7--7--7----7--7--7--7--|


  |--3-|  |--3--|               
  Q    E  E  E  E   Q     Q     
-------------------------------|
-------------------------------|
-------------------------------|
-------------------------------|
--9----------------10----12----|
--7----7--7--7--7---8----10----|


  |--3-|  |--3--|  |--3-|  |--3--|   
  Q    E  E  E  E  Q    E  E  E  E   
------------------------------------|
------------------------------------|
------------------------------------|
------------------------------------|
--9----------------9----------------|
--7----7--7--7--7--7----7--7--7--7--|


  |--3-|  |--3--|  |-3|          
  Q    E  E  E  E  E  Q    Q     
--------------------------------|
--------------------------------|
--------------------------------|
--------------------------------|
--9----------------9--7----L----|
--7----7--7--7--7--7--5----L----|


  |--3-|  |--3--|  |--3-|  |--3--|   
  Q    E  E  E  E  Q    E  E  E  E   
------------------------------------|
------------------------------------|
------------------------------------|
------------------------------------|
--5----------------5----------------|
--3----3--3--3--3--3----3--3--3--3--|


  |--3-|  |--3--|  |--3-|  |--3--|   
  Q    E  E  E  E  Q    E  E  E  E   
------------------------------------|
------------------------------------|
------------------------------------|
------------------------------------|
--7----------------7----------------|
--5----5--5--5--5--5----5--5--5--5--|


  |--3-|  |--3--|  |--3-|  |--3--|   
  Q    E  E  E  E  Q    E  E  E  E   
------------------------------------|
------------------------------------|
------------------------------------|
------------------------------------|
--9----------------9----------------|
--7----7--7--7--7--7----7--7--7--7--|


  |--3-|  |--3--|               
  Q    E  E  E  E   Q     Q     
-------------------------------|
-------------------------------|
-------------------------------|
-------------------------------|
--9----------------10----12----|
--7----7--7--7--7---8----10----|


  |--3-|  |--3--|  |--3-|  |--3--|   
  Q    E  E  E  E  Q    E  E  E  E   
------------------------------------|
------------------------------------|
------------------------------------|
------------------------------------|
--5----------------5----------------|
--3----3--3--3--3--3----3--3--3--3--|


  A5                                 
  |--3-|  |--3--|  |--3-|  |--3--|   
  Q    E  E  E  E  Q    E  E  E  E   
------------------------------------|
------------------------------------|
------------------------------------|
------------------------------------|
--7----------------7----------------|
--5----5--5--5--5--5----5--5--5--5--|


  |--3-|  |--3--|  |--3-|  |--3--|   
  Q    E  E  E  E  Q    E  E  E  E   
------------------------------------|
------------------------------------|
------------------------------------|
------------------------------------|
--9----------------9----------------|
--7----7--7--7--7--7----7--7--7--7--|


  |--3-|  |--3--|               
  Q    E  E  E  E   Q     Q     
-------------------------------|
-------------------------------|
-------------------------------|
-------------------------------|
--9----------------10----12----|
--7----7--7--7--7---8----10----|


  B5                                 
  |--3-|  |--3--|  |--3-|  |--3--|   
  Q    E  E  E  E  Q    E  E  E  E   
------------------------------------|
------------------------------------|
------------------------------------|
------------------------------------|
--9----------------9----------------|
--7----7--7--7--7--7----7--7--7--7--|


                    C5    D5                         
  |--3-|  |--3--|                                    
  Q    E  E  E  E   Q     Q       H        H         
-------------------------------|--------------------|
-------------------------------|--------------------|
-------------------------------|--------------------|
-------------------------------|--------------------|
--9----------------10----12----|--9--------7--------|
--7----7--7--7--7---8----10----|--7--------5--------|


  H         H           H        H         
---------------------|--------------------|
---------------------|--------------------|
---------------------|--------------------|
---------------------|--------------------|
--5--------12--------|--9--------7--------|
--3--------10--------|--7--------5--------|


  H         H         
---------------------|
---------------------|
---------------------|
---------------------|
--5--------12--------|
--3--------10--------|


  B5                                 
  |--3-|  |--3--|  |--3-|  |--3--|   
  Q    E  E  E  E  Q    E  E  E  E   
------------------------------------|
------------------------------------|
------------------------------------|
------------------------------------|
--9----------------9----------------|
--7----7--7--7--7--7----7--7--7--7--|


                    C5    D5    
  |--3-|  |--3--|               
  Q    E  E  E  E   Q     Q     
-------------------------------|
-------------------------------|
-------------------------------|
-------------------------------|
--9----------------10----12----|
--7----7--7--7--7---8----10----|


  B5                                 
  |--3-|  |--3--|  |--3-|  |--3--|   
  Q    E  E  E  E  Q    E  E  E  E   
------------------------------------|
------------------------------------|
------------------------------------|
------------------------------------|
--9----------------9----------------|
--7----7--7--7--7--7----7--7--7--7--|


  A5                               
  |----3----|    |----3----|       
  Q    Q    Q    Q    Q    Q       
---------------------------------||
---------------------------------||
--------------------------------*||
--------------------------------*||
--7----7----7----7----7----7-----||
--5----5----5----5----5----5-----||


   D5                                  
   |-----3-----|     |-----3-----|     
   Q     Q     Q     Q     Q     Q     
--------------------------------------|
--------------------------------------|
--------------------------------------|
--------------------------------------|
--12----12----12----12----12----12----|
--10----10----10----10----10----10----|


  Interlude                                   
  |------3-----|  |--3--|  |--3--|  |--3--|   
  E         E  E  E  E  E  E  E  E  E  E  E   
---------------------------------------------|
---------------------------------------------|
---------------------------------------------|
---------------------------------------------|
------------------4-----------------4--------|
--5---------5--5-----5--3--5--5--5-----5--3--|


  |--3--|  |--3--|  |--3--|  |--3--|   
  E  E  E  E  E  E  E  E  E  E  E  E   
--------------------------------------|
--------------------------------------|
--------------------------------------|
--------------------------------------|
-----------4-----------------4--------|
--5--5--5-----5--3--5--5--5-----5--3--|


  |--3--|  |--3--|  |--3--|  |--3--|   
  E  E  E  E  E  E  E  E  E  E  E  E   
--------------------------------------|
--------------------------------------|
--------------------------------------|
--------------------------------------|
-----------6-----------------6--------|
--7--7--7-----7--5--7--7--7-----7--5--|


  |--3--|  |--3--|  |--3--|  |--3--|   
  E  E  E  E  E  E  E  E  E  E  E  E   
--------------------------------------|
--------------------------------------|
--------------------------------------|
--------------------------------------|
-----------6-----------------6--------|
--7--7--7-----7--5--7--7--7-----7--5--|


  |--3--|  |--3--|  |--3--|  |--3--|   
  E  E  E  E  E  E  E  E  E  E  E  E   
--------------------------------------|
--------------------------------------|
--------------------------------------|
--------------------------------------|
-----------2-----------------2--------|
--3--3--3-----3--1--3--3--3-----3--1--|


  |--3--|  |--3--|  |--3--|  |--3--|   
  E  E  E  E  E  E  E  E  E  E  E  E   
--------------------------------------|
--------------------------------------|
--------------------------------------|
--------------------------------------|
-----------2-----------------2--------|
--3--3--3-----3--1--3--3--3-----3--1--|


  |--3--|  |--3--|  |--3--|  |--3--|   
  E  E  E  E  E  E  E  E  E  E  E  E   
--------------------------------------|
--------------------------------------|
--------------------------------------|
--------------------------------------|
-----------4-----------------4--------|
--5--5--5-----5--3--5--5--5-----5--3--|


  |--3--|  |--3--|  |--3--|  |--3--|   
  E  E  E  E  E  E  E  E  E  E  E  E   
--------------------------------------|
--------------------------------------|
--------------------------------------|
--------------------------------------|
-----------4-----------------4--------|
--5--5--5-----5--3--5--5--5-----5--3--|


    |--3--|       |--3--|        
    E  E  E  Q    E  E  E  Q     
|-------------------------------|
|-------------------------------|
|*-----------7-------------7----|
|*-----------7-------------7----|
|-------------------------------|
|---7--7--7-------7--7--7-------|


  |--3--|                    
  E  E  E  E  E  H         4x
---------------------------||
---------------------------||
-----------7--9--L--------*||
-----------7--9--L--------*||
---------------------------||
--7--7--7------------------||


  |--3--|  |--3--|  |--3--|  |--3--|   
  E  E  E  E  E  E  E  E  E  E  E  E   
--------------------------------------|
--------------------------------------|
-----------6-----------------6--------|
--7--7--7-----7--5--7--7--7-----7--5--|
--------------------------------------|
--------------------------------------|


  |--3--|  |--3--|  |--3--|  |--3--|   
  E  E  E  E  E  E  E  E  E  E  E  E   
--------------------------------------|
--------------------------------------|
-----------6-----------------6--------|
--7--7--7-----7--5--7--7--7-----7--5--|
--------------------------------------|
--------------------------------------|


  |--3--|  |--3--|  |--3--|  |--3--|   
  E  E  E  E  E  E  E  E  E  E  E  E   
--------------------------------------|
--------------------------------------|
-----------8-----------------8--------|
--9--9--9-----9--7--9--9--9-----9--7--|
--------------------------------------|
--------------------------------------|


  |--3--|  |--3--|  |--3--|  |--3--|   
  E  E  E  E  E  E  E  E  E  E  E  E   
--------------------------------------|
--------------------------------------|
-----------8-----------------8--------|
--9--9--9-----9--7--9--9--9-----9--7--|
--------------------------------------|
--------------------------------------|


  |--3--|  |--3--|  |--3--|  |--3--|   
  E  E  E  E  E  E  E  E  E  E  E  E   
--------------------------------------|
--------------------------------------|
-----------4-----------------4--------|
--5--5--5-----5--3--5--5--5-----5--3--|
--------------------------------------|
--------------------------------------|


  |--3--|  |--3--|  |--3--|  |--3--|   
  E  E  E  E  E  E  E  E  E  E  E  E   
--------------------------------------|
--------------------------------------|
-----------4-----------------4--------|
--5--5--5-----5--3--5--5--5-----5--3--|
--------------------------------------|
--------------------------------------|


  |--3--|  |--3--|  |--3--|  |--3--|   
  E  E  E  E  E  E  E  E  E  E  E  E   
--------------------------------------|
--------------------------------------|
-----------6-----------------6--------|
--7--7--7-----7--5--7--7--7-----7--5--|
--------------------------------------|
--------------------------------------|


  |--3--|  |--3--|  |--3--|  |--3--|   
  E  E  E  E  E  E  E  E  E  E  E  E   
--------------------------------------|
--------------------------------------|
-----------6-----------------6--------|
--7--7--7-----7--5--7--7--7-----7--5--|
--------------------------------------|
--------------------------------------|


  B5                                 
  |--3-|  |--3--|  |--3-|  |--3--|   
  Q    E  E  E  E  Q    E  E  E  E   
------------------------------------|
------------------------------------|
------------------------------------|
------------------------------------|
--9----------------9----------------|
--7----7--7--7--7--7----7--7--7--7--|


                    C5    D5    
  |--3-|  |--3--|               
  Q    E  E  E  E   Q     Q     
-------------------------------|
-------------------------------|
-------------------------------|
-------------------------------|
--9----------------10----12----|
--7----7--7--7--7---8----10----|


  B5                                 
  |--3-|  |--3--|  |--3-|  |--3--|   
  Q    E  E  E  E  Q    E  E  E  E   
------------------------------------|
------------------------------------|
------------------------------------|
------------------------------------|
--9----------------9----------------|
--7----7--7--7--7--7----7--7--7--7--|


  A5                             
  |----3----|    |----3----|     
  Q    Q    Q    Q    Q    Q     
--------------------------------|
--------------------------------|
--------------------------------|
--------------------------------|
--7----7----7----7----7----7----|
--5----5----5----5----5----5----|


    E  S S E  S S E  S S E  E   
|------------------------------|
|------------------------------|
|*-----------------------------|
|*-----------------------------|
|---9------9------9------9--7--|
|---7--7-7-7--7-7-7--7-7-7--5--|


  E  S S E  S S E  S S E  E   
-----------------------------|
-----------------------------|
-----------------------------|
-----------------------------|
--9------9------9------9--7--|
--7--7-7-7--7-7-7--7-7-7--5--|


  G5                      F#5  
  E  S S E  S S E  S S E  E    
------------------------------|
------------------------------|
------------------------------|
------------------------------|
--5------5------5------5--4---|
--3--3-3-3--3-3-3--3-3-3--2---|


  G5                      A5                            
  E  S S E  S S E  S S E  E       S S Q    H        E   
------------------------------||-----------------------|
------------------------------||-----------------------|
-----------------------------*||-----------------------|
-----------------------------*||-----------------------|
--5------5------5------5--7---||--9-----------------7--|
--3--3-3-3--3-3-3--3-3-3--5---||--7-----------------5--|


  S S Q    H        E     S S Q    H        E   
-----------------------|-----------------------|
-----------------------|-----------------------|
-----------------------|-----------------------|
-----------------------|-----------------------|
--9-----------------7--|--5-----------------4--|
--7-----------------5--|--3-----------------2--|


  S S Q    H        E       E  S S E  S S E  S S E  E   
-----------------------||------------------------------|
-----------------------||------------------------------|
-----------------------||*-----------------------------|
-----------------------||*-----------------------------|
--5--------------------||---9------9------9------9--7--|
--3--------------------||---7--7-7-7--7-7-7--7-7-7--5--|


  E  S S E  S S E  S S E  E   
-----------------------------|
-----------------------------|
-----------------------------|
-----------------------------|
--9------9------9------9--7--|
--7--7-7-7--7-7-7--7-7-7--5--|


  G5                      F#5  
  E  S S E  S S E  S S E  E    
------------------------------|
------------------------------|
------------------------------|
------------------------------|
--5------5------5------5--4---|
--3--3-3-3--3-3-3--3-3-3--2---|


  G5                      A5    
  E  S S E  S S E  S S E  E     
------------------------------||
------------------------------||
-----------------------------*||
-----------------------------*||
--5------5------5------5--7---||
--3--3-3-3--3-3-3--3-3-3--5---||


  G5                      A5  
  E  S S E  S S E  S S E  E   
-----------------------------|
-----------------------------|
-----------------------------|
-----------------------------|
--5------5------5------5--7--|
--3--3-3-3--3-3-3--3-3-3--5--|


  E  S S E  S S E  S S E  E   
-----------------------------|
-----------------------------|
-----------------------------|
-----------------------------|
--9------9------9------9--7--|
--7--7-7-7--7-7-7--7-7-7--5--|


  E  S S E  S S E  S S E  E   
-----------------------------|
-----------------------------|
-----------------------------|
-----------------------------|
--9------9------9------9--7--|
--7--7-7-7--7-7-7--7-7-7--5--|


  G5                      F#5  
  E  S S E  S S E  S S E  E    
------------------------------|
------------------------------|
------------------------------|
------------------------------|
--5------5------5------5--4---|
--3--3-3-3--3-3-3--3-3-3--2---|


  G5                      A5  
  E  S S E  S S E  S S E  E   
-----------------------------|
-----------------------------|
-----------------------------|
-----------------------------|
--5------5------5------5--7--|
--3--3-3-3--3-3-3--3-3-3--5--|


  E  S S E  S S E  S S E  E   
-----------------------------|
-----------------------------|
-----------------------------|
-----------------------------|
--9------9------9------9--7--|
--7--7-7-7--7-7-7--7-7-7--5--|


  E  S S E  S S E  S S E  E   
-----------------------------|
-----------------------------|
-----------------------------|
-----------------------------|
--9------9------9------9--7--|
--7--7-7-7--7-7-7--7-7-7--5--|


  G5                      F#5  
  E  S S E  S S E  S S E  E    
------------------------------|
------------------------------|
------------------------------|
------------------------------|
--5------5------5------5--4---|
--3--3-3-3--3-3-3--3-3-3--2---|


  Q     Q     Q     Q      
--------------------------|
-------15b---------15b----|
--------------------------|
--------------------------|
--------------------------|
--------------------------|


  Q     E    S   S   Q    S  S  S  S  
----------------------------12-12-15-|
--L----15b--15b-15br-L----L----------|
-------------------------------------|
-------------------------------------|
-------------------------------------|
-------------------------------------|


   E    S   S  S  S   S   S   Q.       S  S  
--15b--15b-15b-L-15b-15b-15b-15br------L-12-|
--------------------------------------------|
--------------------------------------------|
--------------------------------------------|
--------------------------------------------|
--------------------------------------------|


   S   S  S   S  S   S  S   S  S   S  S   S  S   S  S   
--17p-12-15p-12--------14p-12-17p-12-15p-12--------14p-1
----------------15p-12----------------------15p-12------
--------------------------------------------------------
--------------------------------------------------------
--------------------------------------------------------
--------------------------------------------------------


   S   S  S   S  S   S  S   S  Q      Q      
--17p-12-15p-12--------14p-12---------------|
----------------15p-12--------15b----15b----|
--------------------------------------------|
--------------------------------------------|
--------------------------------------------|
--------------------------------------------|


   S   S  S  S   S  S  S   S  S  S   S  S  S   S  S   S 
--15p-12----14p-12----15p-12----14p-12----15p-12-14p-12-
---------12--------12--------12--------12---------------
--------------------------------------------------------
--------------------------------------------------------
--------------------------------------------------------
--------------------------------------------------------


   S   S  S  S   S  S  S   S  S  S   S  S  T   S. T   S.
--15p-12----14p-12----15p-12----14p-12----15p-12-14p-12-
---------12--------12--------12--------12---------------
--------------------------------------------------------
--------------------------------------------------------
--------------------------------------------------------
--------------------------------------------------------


   |--3--|  |--3--|  |--3--|  |--3--|  |--3--|  |--3--| 
   T  T  T  T  T  T  T  T  T  T  T  T  T  T  T  T  T  T 
--14-14-14-14-14-14-14-14-15-15-15-15-15-15-15-15-17-17-
--------------------------------------------------------
--------------------------------------------------------
--------------------------------------------------------
--------------------------------------------------------
--------------------------------------------------------


   Q      H.              
--22b----22br------------|
-------------------------|
-------------------------|
-------------------------|
-------------------------|
-------------------------|


    E  S S S S S S S S S S S S S S  
|----------------------------------|
|----------------------------------|
|*-----4-5-4-----------------------|
|*-----------5-4---4-5-4-5-4-------|
|----------------7-----------7-5-4-|
|---7------------------------------|


  E  S S S S S S S S S S S S S S  
---------------------------------|
---------------------------------|
-----4-5-4-----------------------|
-----------5-4---4-5-4-5-4-------|
---------------7-----------7-5-4-|
--7------------------------------|


  E  S S S S S S S S S S S S S S  
---------------------------------|
---------------------------------|
-----4-5-4-----------------------|
-----------5-4---4-5-4-5-4-------|
---------------7-----------7-5-4-|
--7------------------------------|


  E  S S S S S S S S S S S S S S    
----------------------------------||
----------------------------------||
-----4-5-4-----------------------*||
-----------5-4---4-5-4-5-4-------*||
---------------7-----------7-5-4--||
--7-------------------------------||


  Q    Q    H           W                 
---------------------|-------------------|
---------------------|-------------------|
---------------------|-------------------|
---------------------|-------------------|
--9------------------|-------------------|
--7------------------|-------------------|


-------------------||
-------------------||
-------------------||
-------------------||
-------------------||
-------------------||




Duration Legend
---------------
W - whole
H - half
Q - quarter
E - 8th
S - 16th
T - 32nd
X - 64th
. - note dotted
|-n-|  - n-tuplets


Tablature Legend
----------------
L - tied note
x - dead note
g - grace note
(n) - ghost note
> - accentuded note
NH - natural harmonic
AH - artificial harmonic
TH - tapped harmonic
SH - semi harmonic
PH - pitch harmonic
h - hammer on
p - pull off
b - bend
br - bendRelease
pb - preBend
pbr - preBendRelease
brb - bendReleaseBend
\n/ - tremolo bar dip
\n - tremolo bar dive
-/n - tremolo bar Release up
/n\ - tremolo bar inverted dip
/n - tremolo bar return
-\n - tremolo bar Release down
S - shift slide
s - legato slide
/ -  slide into from below or out of upwards
\ -  slide into from above or out of downwards
~ - vibrato
W - wide vibrato
tr - trill
TP - tremolo picking
T - tapping
S - slap
P - pop
< - fade in
^ - brush up
v - brush down


Tap to rate this tab
# A B C D E F G H I J K L M N O P Q R S T U V W X Y Z