Song name
# A B C D E F G H I J K L M N O P Q R S T U V W X Y Z

Slayer - Not Of This God tab

Slayer - Not of this god
truly an awesome song :D
tabs by andy32286
i don't know the solos, sorry :[

+ = palm mute

Intro
|----------------------------------------------|
|----------------------------------------------|
|----------------------------------------------|
|----------------------------------------------|  X4
|-------------------------------------------5--|
|-6-000000000-4-000000000-6-000000000-4-000-3--|
    +++++++++   +++++++++   +++++++++   +++

I Wake Each Day...
|----------------------------------------------|
|----------------------------------------------|
|----------------------------------------------|
|----------------------------------------------| X4
|----------------------------------------------|
|-22222-333-22222-33333-6666-5555-66666-333333-|
  +++++ +++ +++++ +++++ ++++ ++++ +++++ ++++++

After verses 
|----------------------------------------------|
|----------------------------------------------|
|----------------------------------------------|
|----------------------------------------------|
|--6-5--------6-5--------6-5--6-5--6-5---3~~---|
|--4-3-000000-4-3-000000-4-3--4-3--4-3---1~~---|
       ++++++     ++++++   

Chorus
|--------------------------------------------|
|--------------------------------------------|
|--------------------------------------------|
|--------------------------------------------|X2
|--------------------------------------------|
|-3333-2222-55555555---3333-2222-88888888----|
*note: cute the last part a little on the second verse of the chorus

|----------------------------------------------|
|----------------------------------------------|
|----------------------------------------------|
|----------------------------------------------| 
|-------------------------------------------5--|
|-6-000000000-4-000000000-6-000000000-4-000-3--|
    +++++++++   +++++++++   +++++++++   +++

REPEAT ALL OF ABOVE, THEN...

after second chorus
|14~~~~~~~~~~~~~~~~~~~~~~~~~~~~----------------|
|----------------------------------------------|
|----------------------------------------------|
|----------------------------------------------|
|----------------------------------------------|
|----------------------------------------------|

After drums come in..

|--------------------------|
|--------------------------|
|--------------------------|
|--------------------------| X3
|-2--3---------------------|
|-0--1---0-0---0-0---0-0---|
  +      + +   + +   + +
|--------------------------|
|--------------------------|
|--------------------------|
|--------------------------|
|-2--3-----------5---------|
|-0--1---0-0---0-3---------|
  +      + +   +


False god Sorcerer...
|--------------------------||--------------------------|
|--------------------------||--------------------------|
|--------------------------||--------------------------|
|--------------------------||--------------------------|
|-2--3---------------------||-2--3-----------5---------|
|-0--1---0-0---0-0---0-0---||-0--1---0-0---0-3---------|
  +      + +   + +   + +      +      + +   +
*Note, repeat the first part 3 times before doing the second part

|--------------------------||--------------------------|
|--------------------------||--------------------------|
|--------------------------||--------------------------|
|--------------------------||--------------------------|
|-2--3---------------------||-2--3-----------5---------|
|-0--1---0-0---0-0---0-0---||-0--1---0-0---0-3---------|

No need to feel so hollow...
|---------------------------------|
|---------------------------------|
|---------------------------------|
|---6----5----------------3-2-----| X4
|---4----3----------1-2-3-----2---|
|-5----4----666666----------------|
            ++++++
during solo
|--------------------------|
|--------------------------|
|--------------------------|
|--------------------------| X3
|-2--3---------------------|
|-0--1---0-0---0-0---0-0---|
  +      + +   + +   + +
|--------------------------|
|--------------------------|
|--------------------------|
|--------------------------|
|-2--3-----------5---------|
|-0--1---0-0---0-3---------|
  +      + +   +

Holy water empty threat...
|--------------------------|
|--------------------------|
|--------------------------|
|--------------------------| X3
|-2--3---------------------|
|-0--1---0-0---0-0---0-0---|
  +      + +   + +   + +
|--------------------------|
|--------------------------|
|--------------------------|
|--------------------------|
|-2--3-----------5---------|
|-0--1---0-0---0-3---------|
  +      + +   +

|--------------------------|
|--------------------------|
|--------------------------|
|--------------------------| X3
|-2--3---------------------|
|-0--1---0-0---0-0---0-0---|
  +      + +   + +   + +
|--------------------------|
|--------------------------|
|--------------------------|
|--------------------------|
|-2--3-----------5---------|
|-0--1---0-0---0-3---------|
  +      + +   +

No need to feel so hollow...
|---------------------------------|
|---------------------------------|
|---------------------------------|
|---6----5----------------3-2-----| X4
|---4----3----------1-2-3-----2---|
|-5----4----666666----------------|
            ++++++

..on metal slavery

|---------------------|
|---------------------|
|---------------------|
|-5----6----7--8--9---|
|-3----4----5--6--7---|
|---------------------|

*solo*

You are the tainted, I am the pure...
|---------------------------|   ----|
|---------------------------|   ----|
|---------------------------|   ----|
|---------------------------| X3----|
|--5-4---5-4---5-4----------|   --3-|
|--3-2---3-2---3-2-00000000-|   --1-|
                   ++++++++      after 3rd time

Chorus
|--------------------------------------------|
|--------------------------------------------|
|--------------------------------------------|
|--------------------------------------------|X4
|--------------------------------------------|
|-3333-2222-55555555---3333-2222-88888888----|
after 2nd time, play the intro a little bit, and listen for timing

Outro
|----------------------------------------------|
|----------------------------------------------|
|----------------------------------------------|
|----------------------------------------------|  X4
|-------------------------------------------5--|
|-6-000000000-4-000000000-6-000000000-4-000-3--|
    +++++++++   +++++++++   +++++++++   +++


NOT OF THIS GAAAWWWWWDDDDDD!!!!!

thanks for viewing my tab
Tap to rate this tab
# A B C D E F G H I J K L M N O P Q R S T U V W X Y Z