Song name
# A B C D E F G H I J K L M N O P Q R S T U V W X Y Z

Slayer - Threshold tab

-------------------------------------------------------------------------------
			     THRESHOLD - Slayer
-------------------------------------------------------------------------------
Tabbed by: GuitarHero_JP
Email: j.proudlove@hotmail.co.uk

Guitar I, Kerry King: C# G# E B F# C#
Guitar II, Jeff Hanneman: C# G# E B F# C#

Q=192

Intro 4/4                         2/4       4/4
Guitar I (All Palm Muted)
  E E E E E E E E  E E E E E E E   E E E E  E E E E E E E E  E E E E E E E   E E E E
|----------------|---------------|--------|----------------|---------------|--------|
|----------------|---------------|--------|----------------|---------------|--------|
|----------------|---------------|--------|----------------|---------------|--------|
|----------------|---------------|--------|----------------|---------------|--------|
|----------------|---------------|--------|----------------|---------------|--------|
|-3-2-0-1-0--3-2-|-0--3-2-0-1-0--|-3-2-0--|-3-2-0-1-0--3-2-|-0--3-2-0-1-0--|-3-2-0--|
|Riff 1                                                                End    Riff 1|
|
|Guitar II
|      W                W            H      E E E E E E E E  E E E E E E E   E E E E
|----------------|---------------|--------|----------------|---------------|--------|
|----------------|---------------|--------|----------------|---------------|--------|
|----------------|---------------|--------|----------------|---------------|--------|
|----------------|---------------|--------|----------------|---------------|--------|
|----------------|---------------|--------|----------------|---------------|--------|
|----------------|---------------|--------|-3-2-0-1-0--3-2-|-0--3-2-0-1-0--|-3-2-0--|

Guitar I & II
  E E E E E E E E   E E E E E E E
|-----------------|----------------|
|*----------------|---------------*|
|-----------------|----------------|
|-----------------|----------------|
|*5-4-2-3-2-5-4-2-|-5-4-2-3-2-5-4-*|
|-3-2-0-1-0-3-2-0-|-3-2-0-1-0-3-2--| x6

Verse 1
Guitar I & II
  E E E E E E E E  E E E E E E E E E E E E E E E E
|----------------|----------------|---------------|
|*---------------|----------------|--------------*|
|----------------|----------------|---------------|
|----------------|----------------|---------------|
|*---------------|----------------|--------------*|
|-3-2-0-1-0--3-2-|-0--3-2-0-1-0-1-|-0--3-2-0--3-2-| x4

Pre-Chorus
Guitar I
  E Q  E E Q  E   E Q  Q  E Q    E Q  E E Q  E   E Q  Q  E Q
|---------------|--------------|---------------|--------------|
|*--------------|--------------|---------------|-------------*|
|---------------|--------------|---------------|--------------|
|---------------|--------------|---------------|--------------|
|*--------------|-----------3--|---------------|-----------3-*|
|-1-0--0-1-0--0-|-1-0--0--0-1--|-1-0--0-1-0--0-|-1-0--0--0-1--| x4

Guitar I
  E Q  E E Q  E   E Q  Q  E Q    E Q  E E Q  E   E Q  Q  E Q
|---------------|--------------|---------------|--------------|
|---------------|--------------|---------------|--------------|
|---------------|--------------|---------------|--------------|
|---------------|--------------|---------------|--------------|
|---------------|-----------3--|---------------|-----------3--|
|-1-0--0-1-0--0-|-1-0--0--0-1--|-1-0--0-1-0--0-|-1-0--0--0-1--|
|
|
|Guitar II                             W            W
|---------------|--------------|---------------|--------------|
|---------------|--------------|---------------|--------------|
|---------------|--------------|-------7+\-----|-/-(7)~~------|
|---------------|--------------|----------\----|/-------------|
|---------------|--------------|-----------\--/|--------------|
|---------------|--------------|------------\/-|--------------|
                                       NH

Chorus
  E E Q  Q  E E  +E Q  Q  E Q    E E Q  Q  E E  +E Q  Q  E Q
|---------------|--------------|---------------|--------------|
|*--------------|--------------|---------------|-------------*|
|---------------|--------------|---------------|--------------|
|---------------|--------------|---------------|--------------|
|*3-----------3-|---------3-3--|-3-----------3-|---------3-3-*|
|-1-0-0--0--0-1-|---0--0--1-1--|-1-0-0--0--0-1-|---0--0--1-1--| x4

Riff 1

Verse

Pre-Chorus (Last 2 Bars)

Chorus

Outro Guitar I & II
  E E E E E E E E   E E E E E E E
|-----------------|----------------|
|-----------------|----------------|
|-----------------|----------------|
|-----------------|----------------|
|-5-4-2-3-2-5-4-2-|-5-4-2-3-2-5-4--|
|-3-2-0-1-0-3-2-0-|-3-2-0-1-0-3-2--| x8

Well thats it. It's only a short song. Hope you enjoyed it and happy guitar playing!

| /  slide up
| \  slide down
| h  hammer-on
| p  pull-off
| ~  vibrato
| +  harmonic
| x  Mute note
===============================================================================
Tap to rate this tab
# A B C D E F G H I J K L M N O P Q R S T U V W X Y Z