Slayer - Not Of This God tab

BAND-SLAYER
SONG-NOT OF THIS GOD
ALBUM-WORLD PAINTED BLOOD
TRACK-11
GUITAR-7-STRING GUITAR
TUNING-Bb,Eb,Ab,Db,Gb,Bb,Eb  a half step down
TABED BY-Zino Meggas

I learned it by Ear
...Hope it Helps...
And SORRY...No Solos

Intro
-------------------------------------------------|
-------------------------------------------------|
-------------------------------------------------|
-------------------------------------------------|
---------------------------------------------5~--|
-7-00000000-4-00000000-7-0000-4-00-4-00-4-00-3~--|
-------------------------------------------------|

VERSE
------------------------------------------------------------------|
------------------------------------------------------------------|
------------------------------------------------------------------|
------------------------------------------------------------------|
------------------------------------------------------------------|
-33333333-4444-33333333-4444-77777777-66666666-77777777-44444444--|
------------------------------------------------------------------|

PRE-CHORUS
-------------------------------------------|
-------------------------------------------|
-------------------------------------------|
-------------------------------------------|
-7\6----------7\6----------7\6-7\6-7\6-3~--|
-5\4-00000000-5\4-00000000-5\4-5\4-5\4-1~--|
-------------------------------------------|

CHORUS
--------------------------------------------------------|
--------------------------------------------------------|
--------------------------------------------------------|
--------------------------------------------------------|
--------------------------------------------------------|
-11111111-00000000-44444444-11111111-00000000-66666666--|
--------------------------------------------------------|

PRE BRIDGE   FEED-BACK AND DRUMS
-------|
-------|
-------|
-3~~~--
-3~~~--
-1~~~--
-------

BRIDGE  7-STRING ENTERS
-----------------------l------------------------------|
-----------------------l------------------------------|
-----------------------l------------------------------|
-----------------------l------------------------------|
-----------------------l------------------------------|
---3-2--2-2--2-2--2-2--l---3-0--2-2--2-2--2-2--3-6-6--|
-x-1-0--0-0--0-0--0-0--l-x-1-0--0-0--0-0--0-0--1/4-4--|

BRIDGE
-------------------------------------------------------|
-------------------------------------------------------|
-------------------------------------------------------|
-------------------------------------------------------|
---------6----------5----------------------------------|
---------6----------5-------------------1-2-1----------|
-0-0-0-0-4--0-0-0-0-3--11111111-0-1-2-3-------3-2-1-0--|

PRE SOLO
-----------------|
-----------------|
-----------------|
-----------------|
-4~--5~--6~--7~--|
-4~--5~--6~--7~--|
-2~--3~--4~--5~--|

thanks for readin, tell me wat u think


SLAYER!!!!!!!!!!!!!!!!
Tap to rate this tab
 
# A B C D E F G H I J K L M N O P Q R S T U V W X Y Z