Slayer - Angel Of Death tab

----------------------------------------------------------------------------
_________________Angel Of Death_________ - Slayer
----------------------------------------------------------------------------
Tabbed by: Kerry Fan1
Tuning: Standard

This is only the middle part of the song that uses a lot of hammer-ons and pull-offs

This came from the actual tab book so I know it is 100% correct

It is a bit fast and tricky but once you get it it sounds wicked cool. Good luck!

E|-------------------------------------------------------------------------|
B|-------------------------------------------------------------------------|
G|-------------------------------------------------------------------------|
D|-------------------------------------------------------------------------|
A|-7h8p7---------6h7p6----5h6p5----4h5p4----7h8p7--------------------------|
E|-------000000--------0--------0------------------------------------------|


E|-------------------------------------------------------------------------|
B|-------------------------------------------------------------------------|
G|-------------------------------------------------------------------------|
D|-----------6-5--------7---------9--8-------------------------------------|
A|---------7------6-7-8------10--------------------------------------------|
E|--0-0--6-----------------9-----------------------------------------------|


E|-------------------------------------------------------------------------|
B|-------------------------------------------------------------------------|
G|-------------------------------------------------------------------------|
D|-------------------------------------------------------------------------|
A|-7h8p7---------6h7p6----5h6p5----4h5p4----7h8p7--------------------------|
E|-------000000--------0--------0------------------------------------------|


E|-------------------------------------------------------------------------|
B|-------------------------------------------------------------------------|
G|-------------------------------------------------------------------------|
D|-----------6-5--------7---------9--8-------------------------------------|
A|---------7------6-7-8------10--------------------------------------------|
E|--0-0--6-----------------9-----------------------------------------------|

E|-------------------------------------------------------------------------|
B|-------------------------------------------------------------------------|
G|-------------------------------------------------------------------------|
D|-------------------------------------------------------------------------|
A|-7h8p7---------6h7p6----5h6p5----4h5p4----7h8p7--------------------------|
E|-------000000--------0--------0------------------------------------------|


E|-------------------------------------------------------------------------|
B|-------------------------------------------------------------------------|
G|-------------------------------------------------------------------------|
D|-----------6-5--------7---------9--8-------------------------------------|
A|---------7------6-7-8------10--------------------------------------------|
E|--0-0--6-----------------9-----------------------------------------------|
************************************

| /   slide up
| \   slide down
| h   hammer-on
| p   pull-off
| ~   vibrato
| +   harmonic
| x   Mute note
| b   Bend
| pb  Pre-bend
| br  Bend release
| pbr Pre-bend release
| brb Bend release bend

************************************
Tap to rate this tab
 
# A B C D E F G H I J K L M N O P Q R S T U V W X Y Z